Dr Zeus - Kangna Acoustic Chords & Tabs

 

Kangna Acoustic Chords & Tabs

Dr Zeus Chords & Tabs

Version: 1 Type: Tab

Kangna Acoustic Tab

These are the chords and the notes played for the song... you will have to figure out what comes when...

     ^                                             ^                  
     Q    E  Q    Q       Q    E  Q    H           Q    E  Q    Q     
E||--4-----------------|------------------------|--4-----------------|
B||--5------------5----|---------------5--------|--4------------4----|
G||--4-------4---------|----------4-------------|--4-------4---------|
D||--6----6------------|-------6----------------|--4----4------------|
A||--4-----------------|--4---------------------|--6-----------------|
E||--4-----------------|------------------------|--4-----------------|

[ Tab from: http://www.guitartabs.cc/tabs/d/dr_zeus/kangna_acoustic_tab.html ]
                       ^                                       
  Q    E  Q    Q       Q    E  Q    Q       Q    E  Q    Q     
--------------------|--2-----------------|--------------------|
---------------4----|--2------------2----|---------------2----|
----------4---------|--2-------2---------|----------2---------|
-------4------------|--2----2------------|-------2------------|
--6-----------------|--4-----------------|--4-----------------|
--------------------|--2-----------------|--------------------|


  ^                    ^                   
  Q    E  Q    Q       Q    E  Q    Q      
--4-----------------|--4-----------------||
--4------------4----|--5------------5----||
--4-------4---------|--4-------4---------||
--4----4------------|--6----6------------||
--6-----------------|--4-----------------||
--4-----------------|--4-----------------||