Dr Dre - Still Dre Chords & Tabs

 

Still Dre Chords & Tabs

Dr Dre Chords & Tabs

Version: 4 Type: Tab 0 ratings
1 star 2 stars 3 stars 4 stars 5 stars
comments

Still Dre Tab

   
Author/Artist: Dr. Dre
Title: still D.R.E
Album: Chronic 2001
Transcribed by: Justin Adair`
Email: Crptic102@aol.com
[ Tab from: http://www.guitartabs.cc/tabs/d/dr_dre/still_dre_tab_ver_4.html ]
--------17-------17-------17-------17-------17-------17-------17-------17-----
-----17-------17-------17-------17-------17-------17-------17-------17--------
--17-------17-------17-------17-------17-------17-------17-------17-------16--
------------------------------------------------------------------------------
------------------------------------------------------------------------------
------------------------------------------------------------------------------
 sweep these bi-e-o-c- hes                                                    

----17-------17-------17-------15-------15-------15-------15-------15---------
-17-------17-------17-------15-------15-------15-------15-------15------------
-------16-------16-------16-------16-------16-------16-------16---------------
------------------------------------------------------------------------------
------------------------------------------------------------------------------
------------------------------------------------------------------------------
                  want bass? mail my place.                                   
Comments