Dr Dre - Forgot About Dre Chords & Tabs

 

Forgot About Dre Chords & Tabs

Dr Dre Chords & Tabs

Version: 7 Type: Tab

Forgot About Dre Tab

   
-------------------------------------------------------------------------------
			     Forgot about Dre - Dr Dre
-------------------------------------------------------------------------------
Tabbed by: Matt Hoare	
Email: matthoare@hotmail.com
[ Tab from: http://www.guitartabs.cc/tabs/d/dr_dre/forgot_about_dre_tab_ver_7.html ]
Tuning: std
	
	Am		F
e|---------5-7-8--------1-3-5------------------------------------------------|
B|-------5------------1------------------------------------------------------|
G|-----5------------2--------------------------------------------------------|
D|---7------------3----------------------------------------------------------|
A|---------------------------------------------------------------------------|
E|---------------------------------------------------------------------------|


| /  slide up
| \  slide down
| h  hammer-on
| p  pull-off
| ~  vibrato
| +  harmonic
| x  Mute note
===============================================================================