Dr Dre - Forgot About Dre Chords & Tabs

 

Forgot About Dre Chords & Tabs

Dr Dre Chords & Tabs

Version: 1 Type: Bass Tab 0 ratings
1 star 2 stars 3 stars 4 stars 5 stars
comments

Forgot About Dre Bass Tab

Artist: Dr Dre
Song Title: Forgot About Dre
Album: Chronic 2001

The tab originally posted by spud12@home.com didn't sound right to me so 
here is the version I made by using spud's outline.


G---------------------------------------------------
D-*------5-7---8---7---------------*----------------
A-*--------------------6-----5-----*----------------
E---3----------------------------4------------------
[ Tab from: http://www.guitartabs.cc/tabs/d/dr_dre/forgot_about_dre_btab.html ]
Just repest this section over and over :)
I think it sounds better, but thanks spud for the tab to work with.

mulder@kos.net 
 
CORRECTION:
 
G-----------3---2-3-2-------------------------------
D-*-------5-----------------------------------------
A-*-----5---------------6-----5---------------------
E---3----------------------------6------------------
 
That's the correct way to play it, just listen to the song and repeat it if you still don't believe me.  Any other tab needs, feel free to IM me or mail me.
Peace out,
M3NAC31130
menace@columbus.rr.com

Comments