Dr Dre - Bitch Niggaz Chords & Tabs

 

Bitch Niggaz Chords & Tabs

Dr Dre Chords & Tabs

Version: 2 Type: Tab 0 ratings
1 star 2 stars 3 stars 4 stars 5 stars
comments

Bitch Niggaz Tab

   
-------------------------------------------------------------------------------
			     Bitch Niggaz - Dr Dre ft Snoop dogg and hitman
-------------------------------------------------------------------------------
Tabbed by:Konrad Kosieniak-Madejski
Email:
[ Tab from: http://www.guitartabs.cc/tabs/d/dr_dre/bitch_niggaz_tab_ver_2.html ]
Tuning:EADGBe
 intro 
  Em                    Am                  Em                 Am
e|7-------7h8------------5--------5-7-8-7-5-7-------7h8p7-------5----------|
B|8----------7h8p7---8---5--------5---------8------------8---8--5----------|
G|9----------------9-----5--------5---------9--------------9----5----------|
D|-------------------------------------------------------------------------|
A|-------------------------------------------------------------------------|
E|-------------------------------------------------------------------------|
main riff
e|7-----------------7h8--5-------------5h7--7---------7h8-5------------5h7-|
B|8----------------------5------------------8-------------5----------------|
G|9----------------------5------------------9-------------5----------------|
D|-------------------------------------------------------------------------|
A|-------------------------------------------------------------------------|
E|-------------------------------------------------------------------------|
Comments