Dr Dre - A Nigga Witta Gun Chords & Tabs

 

Dr Dre Chords & Tabs

Version: 3 Type: Bass Tab 0 ratings
1 star 2 stars 3 stars 4 stars 5 stars
comments

A Nigga Witta Gun Bass Tab

InsaNE SONG BY Dr.Dre off of The Chronic. This is the very rocognizable bassline.

Tabbed by FunkBlasts.
[ Tab from: http://www.guitartabs.cc/tabs/d/dr_dre/a_nigga_witta_gun_btab_ver_3.html ]
G|-------11---9---7-|
D|----11-----9------| 
A|--9------7---10---|
e|------------------|

Or it can be played like this

G|---6--9--7-|
D|--6--9--5--|
A|-4--7------|
e|-----------|
Comments