Doyle Bramhall - Shape Im In Chords & Tabs

 

Shape Im In Chords & Tabs

Doyle Bramhall Chords & Tabs

Version: 1 Type: Tab 0 ratings
1 star 2 stars 3 stars 4 stars 5 stars
comments

Shape Im In Tab

   
Author: Mike Kruft
Artist: Doyle Bramhall II
Album:  Arc Angels
Song:   Shape I'm In

feel free to email me at evenwallsfalldwn@hotmail.com

If you're looking at this then bless you for liking good rock and roll.

^ - slight bend
* - major bend
p - pull off
h - hammer on
/ - slide up
~ - vibrato

Intro:    (B key of E)		     (upward strum)
e---------------------------------------------------|
B---------------------------------------------------|
G-------------------------------------8-8-----------|
D---7---7---7---7---7---7---7---7--7--7-7-----------|
A---9---9---11--9---11--9---11--9--9--9-9-----------|
E---7---7---7---7---7---7---7---7--7----------------|

(play four times)

Verse:

   I was down..
e---------------------------------------------------|
B---------------------------------------------------|
G-------------------------------------8-8-----------|
D---7---7---7---7---7---7---7---7--7--7-7-----------|
A---9---9---11--9---11--9---11--9--9--9-9-----------|
E---7---7---7---7---7---7---7---7--7----------------|

   I couldn't get..
e---------------------------------------------------|
B---------------------------------------------------|
G-------------------------------------8-8-----------|
D---7---7---7---7---7---7---7---7--7--7-7-----------|
A---9---9---11--9---11--9---11--9--9--9-9-----------|
E---7---7---7---7---7---7---7---7--7----------------|

    I was hanging..  (E key of A minor)
e---------------------------------------------------|
B-------------------------------------8-8-----------|
G---7---7---7---7---7---7---7---7--7--7-7-----------|
D---9---9---11--9---11--9---11--9--9--9-9-----------|
A---7---7---7---7---7---7---7---7--7----------------|
E---------------------------------------------------|
[ Tab from: http://www.guitartabs.cc/tabs/d/doyle_bramhall/shape_im_in_tab.html ]
    I had to..
e---------------------------------------------------|
B---------------------------------------------------|
G-------------------------------------8-8-----------|
D---7---7---7---7---7---7---7---7--7--7-7-----------|
A---9---9---11--9---11--9---11--9--9--9-9-----------|
E---7---7---7---7---7---7---7---7--7----------------|

    Just when I..
    (F#)                  (E)                  (B)
e---------------------------------------------------|
B---------------------------------------------------|
G---------------------------------------------------|
D---11--11--13--11--13----9--9--11--9--11--9--------|
A---9---9---9---9---9-----7--7--7---7--7---7----9---|
E-----------------------------------------------7---|

Bridge:

e---------------------|
B---------------------|
G---------------------|
D---------------------|
A---4-4-5-5-6-6-------|
E---------------------|

    I tried so hard..
e---------------------------------------------------|
B---------------------------------------------------|
G---7---7---7---7---7---7---7---7--7--7---7---7-----|
D---9---9---11--9---11--9---11--9--9--11--11--9-----|
A---7---7---7---7---7---7---7---7--7--7---7---7-----|
E---------------------------------------------------|

    I'd just be satisfied..
e---------------------------------------------------|
B---------------------------------------------------|
G---------------------------------------------------|
D---7---7---7---7---7---7---7---7--7---7---7---7----|
A---9---9---11--9---11--9---11--9--9---11--11--9----|
E---7---7---7---7---7---7---7---7--7---7---7---7----|

    So much competition..
e---------------------------------------------------|
B---------------------------------------------------|
G---7---7---7---7---7---7---7---7--7--7---7---7-----|
D---9---9---11--9---11--9---11--9--9--11--11--9-----|
A---7---7---7---7---7---7---7---7--7--7---7---7---9-|
E-------------------------------------------------7-|


Solo:

Play verse part twice


Outro:

Fade out on intro part
Comments