Doyle Bramhall - Sent By Angels Chords & Tabs

 

Sent By Angels Chords & Tabs

Doyle Bramhall Chords & Tabs

Version: 1 Type: Tab 0 ratings
1 star 2 stars 3 stars 4 stars 5 stars
comments

Sent By Angels Tab

   
Author: Mike Kruft
Artist: Doyle Bramhall II
Album:  Arc Angels
Song:   Sent By Angels

feel free to email me at evenwallsfalldwn@hotmail.com

If you're looking at this then bless you for liking good rock and roll.

^ - slight bend
* - major bend
p - pull off
h - hammer on
/ - slide up
~ - vibrato

Intro:  Guitar 1
e---------------------------------------------------|
B---------------------------------------------------|
G----9/11--9/11----11p9---7--9--7-------------------|
D----0-----0-------0------9--0--0-------------------|
A---------------------------------------------------|
E---------------------------------------------------|

	Guitar 2
e---2--2--2--2--2--2--2--2--2--2--  ---5-----------|
B---3--3--3--3--3--3--3--3--3--3--  -------7-------|
G---2--2--2--2--2--2--2--2--2--2--  -----------7---|
D---------------------------------  ---------------|
A---------------------------------  ---------------|
E---------------------------------  ---------------|
                                    (play four times)
Play the parts together twice

Verse:
     (D)
e----2--2--2--2--2--2--2--2--2--2-------------------|
B----3--3--3--3--3--3--3--3--3--3-------------------|
G----2--2--2--2--2--2--2--2--2--2----0--------------|
D----------------------------------------4----------|
A---------------------------------------------------|
E---------------------------------------------------|
    (play four times)
[ Tab from: http://www.guitartabs.cc/tabs/d/doyle_bramhall/sent_by_angels_tab.html ]
     I can see..
e----2--2--2--2--2--2--2--2--2--2--------------------|
B----3--3--3--3--3--3--3--3--3--3--------------------|o
G----2--2--2--2--2--2--2--2--2--2----0---------------|
D----------------------------------------4-----------|
A----------------------------------------------------|o
E----------------------------------------------------|

     Angel eyes..
     (C add G)
e-----3-----------------|
B-----3-----------------|
G-----0-----------------|
D-----2-----------------|
A-----3-----------------|
E-----------------------|

     I can feel..
e----2--2--2--2--2--2--2--2--2--2--------------------|
B----3--3--3--3--3--3--3--3--3--3--------------------|o
G----2--2--2--2--2--2--2--2--2--2----0---------------|
D----------------------------------------4-----------|
A----------------------------------------------------|o
E----------------------------------------------------|

     Myself..
e-----3-----------------|
B-----3-----------------|
G-----0-----------------|
D-----2-----------------|
A-----3-----------------|
E-----------------------|


Chorus:

    And I know...     Your so..
     (G)              (Em)
e-----3--------------------------------|
B-----3--------------------------------|o
G-----0--------------------------------|
D-----0---------------2----------------|
A-----2---------------2----------------|o
E-----3-------3---2---0----------------|

    You were..    Sent by..       From the...
e--------------  --2----3----3----------------2----|
B--------------  --3----3----3----------------3----|o
G--------------  --2----0----0----------------2----|
D-----2---2----  -------2----0-----2----2----------|
A-----2---3----  -------3----2-----2----3----------|o
E-----0---0----  ------------3-----0----0----------|


Bridge:

repeat intro part


Solo:

G  C  D  pattern


Outro:

G  C  D  pattern & fade
Comments