Doyle Bramhall - Problem Child Chords & Tabs

 

Problem Child Chords & Tabs

Doyle Bramhall Chords & Tabs

Version: 1 Type: Tab 0 ratings
1 star 2 stars 3 stars 4 stars 5 stars
comments

Problem Child Tab

   
Author: Mike Kruft
Artist: Doyle Bramhall II & Smokestack
Album:  Welcome
Song:   Problem Child

feel free to email me at evenwallsfalldwn@hotmail.com

If you're looking at this then bless you for liking good rock and roll.

(due to requests I'm adding more doyle tabs!)

^ - slight bend
* - major bend
p - pull off
h - hammer on
/ - slide up
~ - vibrato

Dropped D tuning

Intro:
e---------------------------------------------------|
B---------------------------------------------------|
G---------------------------------------------------|
D---------------------------------------------------|
A-------0---3---0---5~---0---5p3p0------------------|
D---0------------------------------0----------------|

e-------------------------------------------------|
B-------------------------------------------------|
G-------------------------------------------------|
D-------------------------------------------------|
A-------3---0---5---3-----------------------------|
D---0-------------------4---2^---0----------------|

(play 4 times)

Verse:

Continue with opening riff..
[ Tab from: http://www.guitartabs.cc/tabs/d/doyle_bramhall/problem_child_tab.html ]
Guitar 2 (hold note)
e--------------|
B--------------|
G--------------|
D----12--------|
A--------------|
D--------------|


Chorus:

I really want...
e-----------------|
B-----------------|
G-----------------|
D-------5---------|
A-------5---------|
D-------5---------|
	(G)
                  I don't need...
e---------------------|
B---------------------|
G---------------------|
D---5---6----7----8---|
A---5---6----7----8---|
D---5---6----7----8---|
   (G) (G#) (F) (F#)

Cause everything...    Me..  You..
e----------------------------------|
B----------------------------------|
G----------------------10-----7----|
D-------2--------------10-----7----|
A-------2--------------8------5----|
D-------2--------------------------|
	(E)            (F)   (D)


Guitar 2 Bridge

e-----------------------------------------------------------|
B-----------------------------------------------------------|
G-----------10----------------------------------------------|
D----10/12------12--10----------10--------------------10----|
A-----------------------12--12------12--10------10/12----12-|
D-------------------------------------------12--------------|

(play 4 times)

Sorry, but no solo as of yet, but it's even funner to make
this one up on your own.
Comments