Downside Up - Your Face Chords & Tabs

 

Your Face Chords & Tabs

Downside Up Chords & Tabs

Version: 2 Type: Bass Tab 0 ratings
1 star 2 stars 3 stars 4 stars 5 stars
comments

Your Face Bass Tab

   
Hi, I'm Clint, the bass player/backup guitarist for Downside Up.
This song is titled "Your Face," formerly called "Neighborhood Bake
Sale."  It's track number 1 on our CD.  If you're interested in
listening to our songs, email me at grampacjs1327@yahoo.com.  Thanks.

Bass

Verse
G------------------------------------------|
D------------------------------2-----------|
A---------0-2------6-4--0--0-4---2-2-0-----|
E-7/-0--0-----4--4---------------------4-2-|
[ Tab from: http://www.guitartabs.cc/tabs/d/downside_up/your_face_btab_ver_2.html ]
Bridge
G---------------------------------|
D---------------------------------|
A---------0-0-0-0-2-2-2-2---------|
E-4-4-4-4-----------------2-2-2-2-|

G---------------------------------|
D---------------------------------|
A---------0-0-0-0-2-2-2-2---------|
E-4-4-4-4-----------------2-2-2-2-|

G-----------------------------------|
D-------------------------------4-2-|
A---------0-0-0-0-2-2-2-2-----------|
E-4-4-4-4-----------------0-2-0-----|

G-----------------------------4-4--|
D-------------------------4-4------|
A---------0-0-0-0-2-2-2-2----------|
E-4-4-4-4--------------------------|

Chorus-4 notes each syncopated
G---------|
D---------|
A---------|
E-4-9-5-7-|
Comments