Downset - Pure Trauma Chords & Tabs

 

Pure Trauma Chords & Tabs

Downset Chords & Tabs

Version: 1 Type: Tab 0 ratings
1 star 2 stars 3 stars 4 stars 5 stars
comments

Pure Trauma Tab

   
*-----------------------------*
|         # DOWNSET #         |
|                             |
|       ~ Pure Trauma ~       |
|                             |
| cagriakyurt@fuckhotmail.com |
|    traumavii@hotmail.com    |
*-----------------------------*




Intro
E|---------------------------------------|
B|---------------------------------------|
G|---------------------------------------|
D|---------------------------------------|
A|---------------------------------------|
D|--2--0-0-0-0-0---6--0-0-0-0-0-2-0-3/5--|


Riff A
E|---------------------------------------|
B|---------------------------------------|
G|---------------------------------------|
D|--2--0-0-0-0-0---6--0-0-0-0-0-2-0-3/5--|
A|--2--0-0-0-0-0---6--0-0-0-0-0-2-0-3/5--|
D|--2--0-0-0-0-0---6--0-0-0-0-0-2-0-3/5--|


Riff B
E|-------------|
B|-------------|
G|-------------|
D|--5-5-4-4-3--|
A|--3-3-2-2-1--|
D|-------------|


Riff C
E|-------------|
B|-------------|
G|-------------|
D|--5-5-4-8-3--|
A|--3-3-2-6-1--|
D|-------------|

[ Tab from: http://www.guitartabs.cc/tabs/d/downset/pure_trauma_tab.html ]
Riff D
E|-----------------------------------|
B|-----------------------------------|
G|-----------------------------------|
D|--2-0-0--6-0--2-0--0-2-0-2-0--3/5--|
A|--2-0-0--6-0--2-0--0-2-0-2-0--3/5--|
D|--2-0-0--6-0--2-0--0-2-0-2-0--3/5--|
pm  . . .  . .  . .  . . . . .


Riff E
E|-------------------------------------------------|
B|-------------------------------------------------|
G|-------------------------------------------------|
D|--0-0-~--0-0-~--0-0-~--0-0--0--0-0--0-00--0-0-0--|
A|--0-0-~--0-0-~--0-0-~--0-0--0--0-0--0-00--0-0-0--|
D|--0-0-~--0-0-~--0-0-~--0-0--0--0-0--0-00--0-0-0--|


Riff F
E|-------------------------------------|
B|-------------------------------------|
G|-------------------------------------|
D|--0-0-0--000--0-0--0--000--000--6/8--|
A|--0-0-0--000--0-0--0--000--000--4/6--|
D|--0-0-0--000--0-0--0--000--000-------|


Riff G
E|-------------------------------------|
B|-------------------------------------|
G|-------------------------------------|
D|--0-0-0--000--0-0--0--000--000--000--|
A|--0-0-0--000--0-0--0--000--000--000--|
D|--0-0-0--000--0-0--0--000--000--000--|


*--------------------*
|Downset-Pure Trauma:|
*--------------------*

Intro      x  4
Riff A     x 12
Riff B     x  1
Riff A     x  1
Riff C     x  1
Riff D     x  4
Riff A     x  8
Riff B     x  1
Riff A     x  1
Riff E     x  4
Riff F     x  8 (4 with chicken effect)
Riff B     x  1
Riff A     x  1
Riff C     x  1
Riff A     x  1
Riff B     x  1
Riff C     x  1
Riff B     x  1
Riff G     x  1
Comments