Downfall - Farm Club Chords & Tabs

 

Farm Club Chords & Tabs

Downfall Chords & Tabs

Version: 1 Type: Tab 0 ratings
1 star 2 stars 3 stars 4 stars 5 stars
comments

Farm Club Tab

this is another one of my bands songs 
                  FARM CLUB

-----0-0-3-0-3-0--7-5-3-  x3
-----0-0-3-0-3-0--7-5-3-
------------------------
------------------------
------------------------
------------------------  

[ Tab from: http://www.guitartabs.cc/tabs/d/downfall/farm_club_tab.html ]
              here is the lead




-10-10-10-10-10-12----------------------------- x3
-10-10-10-10-10-12-----------------------------
-------------------9-12-------12---------------
------------------------9----------------------
Comments