Down - Temptations Wings Chords & Tabs

 

Temptations Wings Chords & Tabs

Down Chords & Tabs

Version: 2 Type: Tab 0 ratings
1 star 2 stars 3 stars 4 stars 5 stars
comments

Temptations Wings Tab

   
Temptation's Wings by Down
Transcribed by D.S.
gt0098c@prism.gatech.edu

Tune All Strings Down 1 1/2 steps to C#.

|- C#          Key: ^ means bend up whole step, release back down.
|- G#               \ means slide down.
|- E                () means the note inside is played by second guitar.
|- B
|- F#
|- C#


 Intro Riff
          Slide
||----------------|----------------||----------------|----------------||
||----------------|----------------||----------------|----------------||
||----------------|----------------||----------------|----------------||
||--------\-------|7---------------||----------------|---------\------||
||--------\-------|5-7-----7-9-----||----------------|---------\------||
||--------\-------|--5-----5-7-----||----------------|---------\------||

Riff 1
||----------------|----------------|----------------|----------------||
||----------------|----------------|----------------|----------------||
||----------------|----------------|----------------|----------------||
||----------------|----------------|----------------|----------------||
||------5---^---^-|--^---^---^---\-|------5---^---^-|--^---^---^---\-||
||0-0-5-----------|--------------\-|0-0-5-----------|--------------\-||
[ Tab from: http://www.guitartabs.cc/tabs/d/down/temptations_wings_tab_ver_2.html ]
Riff 2 (Verse)
||----------------|----------------|----------------|----------------||
||----------------|----------------|----------------|----------------||
||----------------|----------------|----------------|----------------||
||-----(4)--^---^-|--^---^---^-----|----------------|----------------||
||------5---^---^-|--^---^---^---\-|------5---------|5-------------\-||
||0-0-5-----------|--------------\-|0-0-5----5^--5^-|3-------------\-||


Riff 3 (Bridge before chorus)
||----------------|----------------|----------------|----------------|
||----------------|----------------|----------------|----------------|
||----------------|----------------|----------------|----------------|
||----------------|----------------|-----(4)--^---^-|--^---^---^-----|
||----------------|----------------|------5---^---^-|--^---^---^---\-|
||5---5-5-5---5-5-|5-6---6---6-6-\-|0-0-5-----------|--------------\-|

|----------------|----------------||
|----------------|----------------||
|----------------|----------------||
|----------------|----------------||
|----------------|----------------||
|5---5-5-5---5-5-|5-6---6---6-6-\-||


Riff 4 (Chorus)
||----------------|----------------|----------------|----------------||
||----------------|----------------|----------------|----------------||
||----------------|----------------|----------------|----------------||
||----------------|----------------|----------------|----------------||
||------5---------|----------------|------5---------|----5-----6-----||
||0-0-5-----0-5^--|--5^--0-5^-3----|0-0-5-----0-5^--|----3-----------||

After the second chorus, it's just a bunch of harmonized parts.  You should
be able to figure it out yourself. It's not that tough, just a pain to
type up.
Comments