Down - Pillars Of Eternity Chords & Tabs

 

Pillars Of Eternity Chords & Tabs

Down Chords & Tabs

Version: 1 Type: Tab 0 ratings
1 star 2 stars 3 stars 4 stars 5 stars
comments

Pillars Of Eternity Tab

This album Rocks, can't believe there aren't any tabs out for this album. Will add a few 
more soon...

Of course music is Db ( drop D then 1/2 step )
                        #1
[--------------------------------------------------
[--------------------------------------------------
[--------------------------------------------------
[--------------------------------------------------
[-----------5~ -------------3~ --------------------
[7 \-0-2-3-0----7 \-0-2-3-0------------------------
[ Tab from: http://www.guitartabs.cc/tabs/d/down/pillars_of_eternity_tab.html ]
                         #2
[-----------------------------------------------------
[-----------------------------------------------------
[-----------------------------------------------------
[-----------------------------------------------------
[----------------------4-5h4----------------------3-3-4h5p5
[0--0-0--0--0-0--0--0-0-----0--0-0--0--0-0--0--0-0----
    [pm]    [pm]    [pm]       [pm]    [pm]    [pm]
                          
                        #3
[-----------------------------------------------
[-----------------------------------------------
[-----------------------------------------------
[-----------5-----------------------------------
[-------3h5----5-----3h5----3h5-----------------
[0--3h5---------0-0-----------------------------

                        #4
[----------------------------------------------
[----------------------------------------------
[----------------------------------------------
[-------------3--------------------------------
[--------5--3---3-3-3h5---5 \  ----------------
[3--5--3---------------------------------------

      Fill
[----------------------
[----------------------
[----------------------
[---3-----3------------
[----3-----3-----------
[----------------------

Ok, here is the song order
#1 2x
#2 2x (add fill at end of 2nd)
#3 4x
Repeat above twice, then
#4 9x ( including solo1 backing)
#1 2x ( including solo1  backing)
#2 2x ( add fill at end of 2nd)
#3 4x
#4 carry out through solo2 and end of song ( about 15x)
 I will add solo later on.
Some of these tabs are chorused due to 2 guitars playing at different pitches simultaneously.
Comments