Down - Losing All Chords & Tabs

 

Losing All Chords & Tabs

Down Chords & Tabs

Version: 1 Type: Tab 0 ratings
1 star 2 stars 3 stars 4 stars 5 stars
comments

Losing All Tab

I don't know the correct tuning for this song
i think that is Db tuning, but my guitar is drop C
and i've tabbed this way

DROP C CGCFAD

s - slide
/ - slide too
h - hammer on 
p - pull off




this is one called loosing all....

|------------------------------------------------------------|
|------------------------------------------------------------|
|------------------------------------------------------------| repeat
|------------------------------------------------------------|
|------------------------------------------------------------|
|------------------6h888-88-6h888/11~~----6h888-88-6h888-6~~-| 

there is the variation

|------------------------------------------------------------------|
|------------------------------------------------------------------|
|------------------------------------------------------------------| repetir
|------------------------------------------------------------------|
|------------------------------------------------------------------|
|------------6h888-88-6h888/11-13~~---6h888-88-6h888-6~~-----------|

repeat til this part

my brain distorts the pleasure

|--------------------------|----------------------------------------------|
|--------------------------|----------------------------------------------|
|-----------------------6--|----------------------------------------------|
|---6s8-8-8-8s6-8-11-ou-6--|---6s8-8-8-8s6-8-6----------------------------| repeat then.. 
|---6s8-8-8-8s6-8-11----4--|---6s8-8-8-8s6-8-6----------------------------| 
|---6s8-8-8-8s5-8-11-------|---6s8-8-8-8s6-8-6----------------------------| 
P.M     . .                        . . 

|------------------------------------------------------------------|
|------------------------------------------------------------------|
|------------------------------------------------------------------| repetir
|------------------------------------------------------------------|
|------------------------------------------------------------------|
|------------6h888-88-6h888/11-13~~---6h888-88-6h888-6~~-----------|


|--------------------------|----------------------------------------------|
|--------------------------|----------------------------------------------|
|-----------------------6--|----------------------------------------------|
|---6s8-8-8-8s6-8-11-ou-6--|---4s6-8-8-8s6-8-6----------------------------| repeat till
|---6s8-8-8-8s6-8-11----4--|---4s6-8-8-8s6-8-6----------------------------| 
|---4s6-6-6-6s4-6-9--------|---4s6-6-6-6s4-6-4----------------------------| 
P.M     . .                        . . 
[ Tab from: http://www.guitartabs.cc/tabs/d/down/losing_all_tab.html ]
this                              my wrists are slit
|--------------------------------|-------------------------------------|
|--------------------------------|-------------------------------------|
|--------------------------------|-7s8-8-8-7s8-7s8---------------------|
|-6-8-8-8-8-6---------------4----|-7s8-8-8-7s8-7s8---------------------|
|-6-8-8-8-8-6-4h6-4-----4h6------|-5s6-6-6-5s8-5s8---------------------|
|-6/8-8-8-8/6-------7-6----------|-------------------------------------|
P.M   . .                              . .

I'm losing aaaallll

|----------------------------------------|
|----------------------------------------|
|-7-8-8-8-8-7-8-7------------------------|
|-7-8-8-8-8-7-8-7-------------4----------|
|-5s6-6-6-6/5-6/5---------4h6------------|
|-----------------7--6--4----------------|
P.M   . .

gun at my head                         

|-------------------------------------|
|-------------------------------------|
|-7-8-8-8-7-8-7-8---------------------|
|-7-8-8-8-7-8-7-8---------------------|
|-5/6-6-6-5/8-5/8---------------------|
|-------------------------------------|
P.M   . .                             

i'm losing all

|----------------------------------------|
|----------------------------------------|
|-7-8-8-8-8-7-8-7------------------------|
|-7-8-8-8-8-7-8-7-------------4----------|
|-5s6-6-6-6/5-6/5---------4h6------------|
|-----------------7--6--4----------------|
P.M   . .

losing aaaaaaaaaaaaaaaaaaal fuck

|------------------------------------------------------------------|
|------------------------------------------------------------------|
|------------------------------------------------------------------| repetir
|------------------------------------------------------------------|
|------------------------------------------------------------------|
|------------6h888-88-6h888/11-13~~---6h888-88-6h888-6~~-----------|


here comes the solo 
it's too big.....!!!

|------------------------------------------------------------------|
|------------------------------------------------------------------|
|------------------------------------------------------------------| repetir
|------------------------------------------------------------------|
|------------------------------------------------------------------|
|------------6h888-88-6h888/11-13~~---6h888-88-6h888-6~~-----------|

this is the part with wah-wah
i realy don't understand this part
but i think it's something like this            El Finito

|-------------------------------|------------------------------------------|
|-------------------------------|---------------------------------------8--|
|-------------------------------|---------------------------------------8--|
|-1--1-1------------------------|-1-------------------------------------8--|
|-1--1-1-6p4-4------------------|-1-------------------6--9--11--9--5----6--|
|-1--1-1-------6-7-8-8-6-7-8-8--|-1--8-11--13--11--7-----------------------|
P.M  . .

This is a fucking great song
Comments