Doves - Sky Starts Falling Chords & Tabs

 

Sky Starts Falling Chords & Tabs

Doves Chords & Tabs

Version: 1 Type: Tab 0 ratings
1 star 2 stars 3 stars 4 stars 5 stars
comments

Sky Starts Falling Tab

   
-------------------------------------------------------------------------------
			     Sky Starts Falling - Doves
-------------------------------------------------------------------------------
Tabbed by:Rabies
Email:emmet@designandprep.com

Tuning:Standard

This is a Fantastic song and it's gonna be their next single. I haven't written the rhythm or
anything simply because I can't but just listen to the track you lazy Langers!

Intro slide thang (actually done on Bass):

e|---------------------------------------------------------------------------|
B|---------------------------------------------------------------------------|
G|---------------------------------------------------------------------------|
D|---------------------------------------------------------------------------|
A|----x-x--9\----------------------------------------------------------------|
E|----x-x-10\----------------------------------------------------------------|

Rhythm part repeated throughout verse & chorus:

e|---------------------------------------------------------------------------|
B|---------------------------------------------------------------------------|
G|---------------------------------------------------------------------------|
D|----11--9-x11-11b--9----------11--9--11*-9---------------------------------| 
A|----9---9-x-9-9----9-----------7--7---7--7---------------------------------|
E|----7---7-x-7-7----7-----------0--0---0--0---------------------------------|

 This part comes in at Bold print- "...Only thing that keeps me ali-ive":

e|--------0---------0--------------------------------------------------------|
B|--------0---------0--------------------------------------------------------|
G|--------1---------1--------------------------------------------------------|
D|----4---2---------2--------------------------------------------------------|
A|----4---2------------------------------------------------------------------|
E|----2---0------------------------------------------------------------------|

This part comes just before - "If you see her again be sure to say hello.."
    
       C sharp minor(sorry,no hash key)      E
e|---------------------------------------------------------------------------|
B|-----5-5-5-5-5-5-5-5-------------------------------------------------------|
G|----6-6-6-6-6-6-6-6----------------------4-4-4-4-4-4-4-4-------------------|
D|----------------------------------------6-6-6-6-6-6-6-6--------------------|
A|---------------------------------------------------------------------------|
E|---------------------------------------------------------------------------|

    B
e|---------------------------------------------------------------------------|
B|---------------------------------------------------------------------------|
G|---4-4-4-4-4-4-4-4----------66-4--3-3--------------------------------------|
D|--4-4-4-4-4-4-4-4-------4---44-4--4-4--------------------------------------|
A|---------------------------------------------------------------------------|
E|---------------------------------------------------------------------------|
    The second time at "Did she see...":
e|---------------------------------------------------------------------------|
B|------5-5-5-5-5-5-5-5-------7-7-7-7-7-7-7-7---< repeat this part and bend--|
G|-----6-6-6-6-6-6-6-6-------9-9-9-9-9-9-9-9-------the hell out of it--------|
D|---------------------------------------------------------------------------|
A|---------------------------------------------------------------------------|
E|---------------------------------------------------------------------------|

    Loud distorted part:

e|---------------------------------------------------------------------------|
B|--------------------7-7------------------------------0000(fast picking)-12-| X 15
G|--keep bending the-9-9-etc. part,alternatively play------------------------|
D|---------------------------------------------------------------------------|
A|---------------------------------------------------------------------------|
E|---------------------------------------------------------------------------|
[ Tab from: http://www.guitartabs.cc/tabs/d/doves/sky_starts_falling_tab.html ]
  Verse

  Chorus

  This part comes in at "I swear I heard you call...":

e|---------------------------------------------------------------------------|
B|---------------------------------------------------------------------------|
G|---------------------------------------------------------------------------|
D|-----13--13--13--11--11--11-------------13--13--13--11--11--11-------------|
A|-----11--11--11--11--14--11--X 2 then---11--11--11--11--14--11--X 2 -------|
E|-----13--13--13--13--13--13-------------12--12--12--12--12--12-------------|


  This part comes just before - "If you see her again be sure to say hello.."

e|---------------------------------------------------------------------------|
B|-------5-5-5-5-5-5-5-5------5-5-5-5-5-5-5-5------7-7-7-7-7-7-7-7-----------|
G|------6-6-6-6-6-6-6-6------4-4-4-4-4-4-4-4------8-8-8-8-8-8-8-8------------|
D|---------------------------------------------------------------------------|
A|---------------------------------------------------------------------------|
E|---------------------------------------------------------------------------|
             

e|---------------------------------------------------------------------------|
B|-------2-2-2-2-2-2-2-2------------------------------0000(fast picking)--12-|
G|------3-3-3-3-3-3-3-3------------------------------------------------------|
D|----------------------------then this part again---------------------------|
A|---------------------------------------------------------------------------|
E|---------------------------------------------------------------------------|

  This part comes in at "I swear I heard you call...":

e|---------------------------------------------------------------------------|
B|---------------------------------------------------------------------------|
G|---------------------------------------------------------------------------|
D|-----13--13--13--11--11--11-------------13--13--13--11--11--11-------------|
A|-----11--11--11--11--14--11--X 2 then---11--11--11--11--14--11--- X 2------|
E|-----13--13--13--13--13--13-------------12--12--12--12--12--12-------------|

    Then this fast part again:
e|---------------------------------------------------------------------------|
B|-----0000(fast picking)--12------------------------------------------------|
G|---------------------------------------------------------------------------|
D|---------------------------------------------------------------------------|
A|---------------------------------------------------------------------------|
E|---------------------------------------------------------------------------|

   This part comes in at "Did she call herself a friend...":
e|---------------------------------------------------------------------------|
B|---5-5-5-5-5-5-5-5----5-5-5-5-5-5-5-5----4-4-4-4-4-4-4-4---5-5-5-5-5-5-5-5-|
G|--6-6-6-6-6-6-6-6----4-4-4-4-4-4-4-4----4-4-4-4-4-4-4-4---6-6-6-6-6-6-6-6--|
D|---------------------------------------------------------------------------|
A|---------------------------------------------------------------------------|
E|---------------------------------------------------------------------------|

e|----------------------7-7-7-7-7-7-7-7------------------------------4--------|
B|---5-5-5-5-5-5-5-5---5-5-5-5-5-5-5-5-------7-7-7-7-7-7-7-7---------5--------|
G|--6-6-6-6-6-6-6-6-------------------------9-9-9-9-9-9-9-9--end on -6--------|
D|-------------------------------------------------------------------6--------|
A|-------------------------------------------------------------------4--------|
E|----------------------------------------------------------------------------|

*= sometimes bent (listen to track)

| /  slide up
| \  slide down
| h  hammer-on
| p  pull-off
| ~  vibrato
| +  harmonic
| x  Mute note



Well that's it, I don't know if it's exactly how Jez plays it and it probably isn't nut hey
 it sounds like it, and when all is said and done in the big brown shanty town and the cat 
sleeps by the old stairs, that's all that really matters....

...I love you.





===============================================================================
Comments