Doves - Cedar Room Chords & Tabs

 

Cedar Room Chords & Tabs

Doves Chords & Tabs

Version: 2 Type: Tab 0 ratings
1 star 2 stars 3 stars 4 stars 5 stars
comments

Cedar Room Tab

   
DOVES tab by gazz@budweiser.com

CEDAR ROOM
(might need to tune down a little)
verse: G
chorus: C, (-2000-), D(--0023-), G(3200--)

BREAK ME GENTLY

|-------------|---------------|---------------|------*
|-------------|---------------|---------------|------*
|-------------|---------------|---------------|------*
|-6---6-------|---6---6---6---|---6---6---6---|---6--*
|---0---------|-0---0---0-----|-0---0---0-----|-0---0*
|-------4-----|-------------4-|-------------4-|------*

These are the chords that come in at the asterix'
C#m
F#
E
F#


RISE
capo on 1st fret
(so '1' indicates open string

|-------------|---------------|---------------|------*
|-------------|---------------|---------------|------*
|-6-----------|-8-------------|---------------|------*
|---6---------|---8-----------|---------------|------*
|-----6-------|-----6---------|---------------|------*
|-----1-------|-----1---------|---------------|------*

don't know about the chords but these sound good...
(9, 11, 11, 10, 1, 1)
and slide up 2 frets...
(11, 13, 13, 12, 1, 1)

chords for harmonica solo...
(-, 8, 10, 10, 9, 1)
(-, 6, 8, 8, 8, 1)
[ Tab from: http://www.guitartabs.cc/tabs/d/doves/cedar_room_tab_ver_2.html ]
|-------------|---------------|---------------|------*
|-------------|---------------|---------------|------*
|-------------|-----5---------|---------------|------*
|-----1-------|-----3---------|---------------|------*
|---1---------|---1-----------|---------------|------*
|-1-----------|-1-------------|---------------|------*


LOST SOULS

C
G

|---------------------------------------------------------------|
|---------------------------------------------------------------|
|---------------2------/5-5-5-5-5-5-5---3-2-3-------5-5-5-5-----|
|-4-4-4-4-4-5-4-------------------------------------------------|
|---------------------------------------------------------------|
|---------------------------------------------------------------|


|-------------------------------------------------------3--------|
|----------------------------------------------------------------|
|---------------2-------5/7/5/7/5/7/5/7-/5-5-5-3----2-0----------|
|-4-4-4-4-4-5-4--------------------------------------------------|
|----------------------------------------------------------------|
|----------------------------------------------------------------|

little lead bits...

|------------|------------------------------------------------------|
|------------|---------------10-10----------------------------------|
|-------10-9-|-----9---10----------9--------------------------------|
|-----9------|-5/7--------------------------------------------------|
|---8--------|-------8---------------10-8---------------------------|
|-7----------|------------------------------------------------------|
Comments