Doves - Catch The Sun Chords & Tabs

 

Catch The Sun Chords & Tabs

Doves Chords & Tabs

Version: 2 Type: Tab

Catch The Sun Tab

   
Song: Catch the Sun
Artist: Doves
Album: Lost Souls

Standard Tuning

Verse 1

   B							 Gmaj7
E|-------------------------------------------------------10----10-|
B|-------------------------------------------------------12----12-|
G|-------------------------------------------------------11----11-|
D|-11-11--9-9--8-8--9---9-9---11-11--9-9--8-8--9---9-9---12----12-|
A|-9--9---9-9--9-9--9---9-9---9--9---9-9--9-9--9---9-9---10----10-|
E|-7--7---7-7--7-7--7---7-7---7--7---7-7--7-7--7---7-7------------|

   B
E|----------------|
B|----------------|
G|---------8-9-8--|
D|-9-9-9-9-9-9-9--|
A|-9-9-9-9-9-9-9--|
E|-7-7-7-7-7-7-7--|

   B							 Gmaj7
E|-------------------------------------------------------10----10-|
B|-------------------------------------------------------12----12-|
G|-------------------------------------------------------11----11-|
D|-11-11--9-9--8-8--9---9-9---11-11--9-9--8-8--9---9-9---12----12-|
A|-9--9---9-9--9-9--9---9-9---9--9---9-9--9-9--9---9-9---10----10-|
E|-7--7---7-7--7-7--7---7-7---7--7---7-7--7-7--7---7-7------------|

   B
E|-------------------|
B|-------------------|
G|---------9-9-9-9-9-|
D|-9-9-9-9-9-9-9-9-9-|
A|-9-9-9-9-9-9-9-9-9-|
E|-7-7-7-7-7-7-7-7-7-|

   B                                                     Gmaj7
E|-------------------------------------------------------10----10-|
B|-------------------------------------------------------12----12-|
G|-------------------------------------------------------11----11-|
D|-11-11--9-9--8-8--9---9-9---11-11--9-9--8-8--9---9-9---12----12-|
A|-9--9---9-9--9-9--9---9-9---9--9---9-9--9-9--9---9-9---10----10-|
E|-7--7---7-7--7-7--7---7-7---7--7---7-7--7-7--7---7-7------------|

   F#
E|-----2-----2-----2------|
B|---0-----0-----0---0----|
G|-3-----3-----3-------3--|
D|------------------------|
A|------------------------|
E|------------------------|

Chorus

G    D    A    E   x4

Chorus Riff

E|---------------------------------------------------|
B|---------------------------------------------------|
G|---------------------------------------------------|
D|-9-9-9-9-9-7-7-----7---7-9-11-11-11b~--9-9-9-7-9-7-|   x 4
A|---------------7h9---9-----------------------------|
E|---------------------------------------------------|

Verse 2

   B
E|------------------------------------|
B|------------------------------------|
G|-8-8-8-8--8-8-8-8--8-8-8-8--9-9-9-9-|
D|-9-9-9-9--9-9-9-9--9-9-9-9--9-9-9-9-|
A|-9-9-9-9--9-9-9-9--9-9-9-9--9-9-9-9-|
E|-7-7-7-7--7-7-7-7--7-7-7-7--7-7-7-7-|

   B                                                     Gmaj7
E|-------------------------------------------------------10----10-|
B|-------------------------------------------------------12----12-|
G|-------------------------------------------------------11----11-|
D|-11-11--9-9--8-8--9---9-9---11-11--9-9--8-8--9---9-9---12----12-|
A|-9--9---9-9--9-9--9---9-9---9--9---9-9--9-9--9---9-9---10----10-|
E|-7--7---7-7--7-7--7---7-7---7--7---7-7--7-7--7---7-7------------|
[ Tab from: http://www.guitartabs.cc/tabs/d/doves/catch_the_sun_tab_ver_2.html ]
   B
E|-----------------|
B|-----------------|
G|---------8-9-9-9-|
D|-9-9-9-9-9-9-9-9-|
A|-9-9-9-9-9-9-9-9-|
E|-7-7-7-7-7-7-7-7-|

   B                                                     Gmaj7
E|-------------------------------------------------------10----10-|
B|-------------------------------------------------------12----12-|
G|-------------------------------------------------------11----11-|
D|-11-11--9-9--8-8--9---9-9---11-11--9-9--8-8--9---9-9---12----12-|
A|-9--9---9-9--9-9--9---9-9---9--9---9-9--9-9--9---9-9---10----10-|
E|-7--7---7-7--7-7--7---7-7---7--7---7-7--7-7--7---7-7------------|

   F#
E|-----2-----2-----2------|
B|---0-----0-----0---0----|
G|-3-----3-----3-------3--|
D|------------------------|
A|------------------------|
E|------------------------|

Chorus

G    D    A    E   x4

Chorus Riff

E|---------------------------------------------------|
B|---------------------------------------------------|
G|---------------------------------------------------|
D|-9-9-9-9-9-7-7-----7---7-9-11-11-11b~--9-9-9-7-9-7-|   x 4
A|---------------7h9---9-----------------------------|
E|---------------------------------------------------|

Bridge

B   B   Em   B      B   B   Em   F#   G   A   B   B

Solo (using fast tremolo picking - listen to song for rhythm)

E|---------------------------------------------------------------------------|
B|12-12-12-12-12-12-12-12-12-12-12-12-12-12-12-12-12-14-14-14-14-14-14-14-14-|
G|---------------------------------------------------------------------------|
D|---------------------------------------------------------------------------|
A|---------------------------------------------------------------------------|
E|---------------------------------------------------------------------------|

E|-------------------------14-14-14-14-14-14-14-14-14-14-14-14-14-14-14-14-|
B|-16-16-16-16-16-16-16-16-------------------------------------------------|
G|-------------------------------------------------------------------------|
D|-------------------------------------------------------------------------|
A|-------------------------------------------------------------------------|
E|-------------------------------------------------------------------------|

E|15-15-15-15-15-15-15-15--\-----2-----2-----2-----------------------------|
B|-------------------------\---0-----0-----0---0---------------------------|
G|---------------------------3-----3-----3-------3-------------------------|
D|-------------------------------------------------------------------------|
A|----------------------------------------------------------9b-----------9b|
E|--------------------------------------------------3-3-3-3------5-5-5-5---|

Chorus  (repeat until end, with picking thrown in, end on G)

G    D    A    E

Chorus Riff

E|---------------------------------------------------|
B|---------------------------------------------------|
G|---------------------------------------------------|
D|-9-9-9-9-9-7-7-----7---7-9-11-11-11b~--9-9-9-7-9-7-|
A|---------------7h9---9-----------------------------|
E|---------------------------------------------------|

Tabbed by Ryan Liddell