Doves - Break Me Gently Chords & Tabs

 

Break Me Gently Chords & Tabs

Doves Chords & Tabs

Version: 2 Type: Tab 0 ratings
1 star 2 stars 3 stars 4 stars 5 stars
comments

Break Me Gently Tab

Artist: The Doves
Song: Break Me Gently
Album: Lost Souls
Transcribed: Alex Greaves

This song rulz and so duz the album. Many people say that The Last Broadcast is
a much better album but i think differently. 
   I was quite appalled at the lack of Doves tabs so i took matters into my own
hands and did it myself.
   This is only my second tab so go easy on me. Plus i am only 12 years old so
don't dis me. Remember i'm nearly a teenager. Teenagers can do really strange
things so beware. This really doesn't have lyrics so that saves me the hassle.

Intro-guitar part 1
E--------------------------------------------------I
B----------0------9---0------0------0------9-------I reapeat this
G------6------6----------6------6-------6----------I a few times
D--------------------------------------------------I don't know how
A--------------------------------------------------I   many
E--------------------------------------------------I

I don't know how many times you play that and i can't be bothered walking up the
stairs and popping the cd on to find out so DIY

Now, for guitar part two the timing is not correct on the tab simply because i
can't be bothered!!! So DIY!!! This is played on a clean electric guitar.
[ Tab from: http://www.guitartabs.cc/tabs/d/doves/break_me_gently_tab_ver_2.html ]
guitar part 2-
E--------------------------------------------------I
B--------------------------------------------------I
G----6-6-6-6-4-4-3-4-3-----------------------------I
D----------------------2-2-2-2-6-6-6-6-------------I
A--------------------------------------------------I
E--------------------------------------------------I

There is some chords played that come in just after part 1 but i can't figure it
out. It would be really appreciatted if anybody outthere knows it could send it
to shearwater@starmail.com


Verse 1-
This is very similar to the intro apart from guitar 1 changes slightly like so...
E---------------------------------------------------
B----------0------9---0------0------0------7---0----
G------6------6-----------6------6------6-----------
D---------------------------------------------------
A---------------------------------------------------
E---------------------------------------------------

 ---------------------0-------I
 -------0------0----------0---I
 ---6------6-------6----------I
 -----------------------------I
 -----------------------------I
 -----------------------------I

Thats about it i think. Now lets hope thats inspired you to do some tabs like
Start With Me by Del Amitri that is a very much needed tab.
I play in a band called shearwater. Watch out for us!!!
   There was one guy who did a tab and at the end he put "remember there are
200.5 million other people who could kick your ass!!" or something like that.
Well to that person respect. That really was funny. Does anyone know Sleepflower
by Manics. Please send that tab to me. I'm off to see them in Manchester soon.
I need to know!!!!
Happy Picking!!!!
Comments