Doves - Black And White Town Chords & Tabs

 

Black And White Town Chords & Tabs

Doves Chords & Tabs

Version: 1 Type: Tab 0 ratings
1 star 2 stars 3 stars 4 stars 5 stars
comments

Black And White Town Tab

   
The Doves - Black and White Town tab by JG - jg2@ntlworld.com

I'm not too sure on the solo, but the rest sounds ok.


Verse

e --6-6--8--8---8--8---|
B --7-7--9--9---9--9---|
G --8-8--10-10--8--8---|
D --8-8--10-10--10-10--|
A --6-8--8--8---11-11--|
E ---------------------|


"10 feet under ground"

e --9--9---9--9---8-8--8-8--|
B --11-11--11-11--9-9--9-9--|
G --10-10--10-10--8-8--8-8--|
D --------------------------|
A --------------------------|
E --------------------------|

then...
e --4-4--4-4--4-4-4-4-4-4--|
B -------------------------|
G -------------------------|
D -------------------------|
A -------------------------|
E -------------------------|

Part A
[ Tab from: http://www.guitartabs.cc/tabs/d/doves/black_and_white_town_tab.html ]
e------------------------------------|
B--11-9----11-9----11-9----11-9------|
G-------10------10------10------10---| x 2
D------------------------------------|
A------------------------------------|
E------------------------------------|

Part B

e--9-11-13/16-16-16--------------------------|
B-------------------18-18-16-18-16-14-13-11--|
G--------------------------------------------|
D--------------------------------------------|
A--------------------------------------------|
E--------------------------------------------|

Then Part A again, then

Part C

e--------13-11-9--------13-11-9-------|
B--11/14----------11-9----------11-9--|
G-------------------------------------|
D-------------------------------------|
A-------------------------------------|
E-------------------------------------|
Comments