Dos Minutos - Nada Que Hacer Chords & Tabs

 

Nada Que Hacer Chords & Tabs

Dos Minutos Chords & Tabs

Version: 2 Type: Bass Tab 0 ratings
1 star 2 stars 3 stars 4 stars 5 stars
comments

Nada Que Hacer Bass Tab

----------------------------------------------
nada que hacer  /  dos minutos
----------------------------------------------

tabbed by carlos pino

    intro                                                               
G]---------------------------------------------------------------------------
D]---------------------------------------------------------------------------
A]-7-7-7-7-7--4-4-4-4-4-----------------------------------------------
E]------------------------------5-5-5-5-5--7-7-7-7-7------------------
[ Tab from: http://www.guitartabs.cc/tabs/d/dos_minutos/nada_que_hacer_btab_ver_2.html ]
    verse                                               x4
G]---------------------------------------------------------------------------
D]---------------------------------------------------------------------------
A]-7-7-7-7-7--4-4-4-4-4-----------------------------------------------
E]------------------------------5-5-5-5-5---7-7-7-7-7-----------------

    verse 2                                             x4      
G]---------------------------------------------------------------------------           x = hartas veces
D]---------------------------------------------------------------------------
A]---------------7#---------------------------------------------------------
E]-5#---7#-----------------------------------------------------------------

verse
verse 2 
verse
verse 2




Comments