Dos Minutos - Arrebato Chords & Tabs

 

Arrebato Chords & Tabs

Dos Minutos Chords & Tabs

Version: 1 Type: Bass Tab 0 ratings
1 star 2 stars 3 stars 4 stars 5 stars
comments

Arrebato Bass Tab

-----------------------------------
arrebato  /  dos minutos                     
-----------------------------------

tabbed by carlos pino

   intro                                                                            x2
G]-------------------------------------------------------------------------- 
D]---------------------------------------------------------------------------
A]-4-4-4-4-4-------------------------------4-4-4-4-4------------------
E]----------------2-2-2-2-2--4-4-4-4-4--------------------------------

  verse
G]---------------------------------------------------------------------------
D]---------------------------------------------------------------------------
A]-4-4-4-4-4------------------------------4-4-4-4-4-------------------
E]---------------2-2-2-2-2-4-4-4-4-4----------------------------------
  iba caminando...
[ Tab from: http://www.guitartabs.cc/tabs/d/dos_minutos/arrebato_btab.html ]
G]---------------------------------------------------------------------------
D]---------------------------------------------------------------------------
A]--4-4-4-4-4------------------------------4-4-4-4-4------------------
E]----------------2-2-2-2-2-4-4-4-4-4---------------------------------
   cai arruinado...
                                                                                                   x2
G]----------------------------------------------------------------------------------------
D]----------------------------------------------------------------------------------------
A]--4-4-4-4-4-----------------------------------------------4-4-4-4-4--------------
E]-----------------2-2-2-2-2-------------------4-4-4-4-4---------------------------
      arrebato , eran mucho para mi. arrebato, seran mucho para vos

G]---------------------------------------------------------------------------
D]---------------------------------------------------------------------------
A]--4-4-4-4-4-------------------------------------------------4-4-4-4-4
E]----------------------------------2-2-2-2-2--4-4-4-4-4---------------
    no vayas muy confiado...

G]---------------------------------------------------------------------------
D]---------------------------------------------------------------------------
A]-4-4-4-4-4---------------------------------------4-4-4-4-4----------
E]------------------2-2-2-2-2------4-4-4-4-4--------------------------
    un arrebato en al noche  arrebato  en la ciudad

....y siempre la misma hue`a !



Comments