Dope - With Or Without You Chords & Tabs

 

With Or Without You Chords & Tabs

Dope Chords & Tabs

Version: 1 Type: Chords 0 ratings
1 star 2 stars 3 stars 4 stars 5 stars
comments

With Or Without You Chords

   
CFGCS{A{x02220}	}CFGCS
Artist:Dope
Song:With Or Without You
Album:Life
|---------------------------------------------------------------------------|
|--Notes: Some of the guitar work follows the same riffing as the bass------|
|--so if you play both alot of this should be easy.Alot of this tab isnt----|
|--my own work. Only bits and pieces the rest is from mxtabs.net------------|
|---------------------------------------------------------------------------|
EDITED SOLO

Legend:

~            Vibrato
.            Palm-Mute
br           Bend-Release
/            Slide Up
\            Slide Down


Intro
1|-----------------------------------------------------------|
2|-----------------------------------------------------------|
3|-11~~~-----------------------------------------------------|
4|------11~~~------------------------------------------------|
5|-----------11-12-11-12-11-12-11-12-11-12-11-12-11-12-11-12-|
6|-----------------------------------------------------------|
This intro was part i found on MXTABS i cant seem to get where 
this riff comes in. The bass is all i hear...


Pre-Verse
1|-----------------------------------------------------------|
2|-----------------------------------------------------------|
3|-----------------------------------------------------------|
4|-4-4-4-4-7-7-7-7-0-0-0-0-2-2-2-2-4-4-4-4-7-7-7-7-0-0-0-0-2-|
5|-4-4-4-4-7-7-7-7-0-0-0-0-2-2-2-2-4-4-4-4-7-7-7-7-0-0-0-0-2-|
6|-4-4-4-4-7-7-7-7-0-0-0-0-2-2-2-2-4-4-4-4-7-7-7-7-0-0-0-0-2-|
     . . .         . . . . . . . . . . . . . . . . . . . . .

Verse
1|----------------------------0----------------------------------0---------|
2|--------------2-----2-----2---2---2----------2-----2---------2---2---2---|
3|------------2-----2-----2-------2----------2-----2---2-----2-------2-----|
4|-4~~~-----4-----4-----4------------------4-----4---------4---------------|
5|-4~~~--------------------------------------------------------------------|
6|-4~~~--------------------------------------------------------------------|
        . . . . . . . . . . . . .  . . . . . . . . . . . . . .

1|--------------------0------------------2-------4---------|
2|-----2-----2------2---2---2----------2---2---2---2---2---|
3|---2-----2------2-------2----------2-------2-------2-----|
4|-4-----4------4------------------4-----------------------|
5|---------------------------------------------------------|
6|---------------------------------------------------------|
   . . . . . . . . . . . . . . . . . . . . . . . . .

Pre-Chorus
1|-----------------------------------------------------------------|
2|-----------------------------------------------------------------|
3|-----------------------------------------------------------------|
4|-4-4-4-4-7-7-7-7-0-0-0-0-2-2-2-2-4-4-4-4-7-7-7-7-0-0-0-0-2-2-2-2-|
5|-4-4-4-4-7-7-7-7-0-0-0-0-2-2-2-2-4-4-4-4-7-7-7-7-0-0-0-0-2-2-2-2-|
6|-4-4-4-4-7-7-7-7-0-0-0-0-2-2-2-2-4-4-4-4-7-7-7-7-0-0-0-0-2-2-2-2-|
   . . . . . . . . . . . . . . . . . . . . . . . . . 
[ Tab from: http://www.guitartabs.cc/tabs/d/dope/with_or_without_you_crd.html ]
Chorus
1|-----------------------------------------|
2|-----------------------------------------|
3|---------6---------4-----------2-------4-|
4|-4-4-4-4-6-2-2-2-2-4-0-0-0-0-2-2-2-2-2-4-|
5|-4-4-4-4-4-2-2-2-2-2-0-0-0-0-0-2-2-2-2-2-|
6|-4-4-4-4-4-2-2-2-2-2-0-0-0-0-0-2-2-2-2-2-|
                                       

Verse 2
1|----------------------------0----------------------------------0---------|
2|--------------2-----2-----2---2---2----------2-----2---------2---2---2---|
3|----------- 2-----2-----2-------2----------2-----2---2-----2-------2-----|
4|-4~~~-----4-----4-----4------------------4-----4---------4---------------|
5|-4~~~--------------------------------------------------------------------|
6|-4~~~--------------------------------------------------------------------|
        . . . . . . . . . . . . .  . . . . . . . . . . . . . .

1|--------------------0------------------2-------4---------|
2|-----2-----2------2---2---2----------2---2---2---2---2---|
3|---2-----2------2-------2----------2-------2-------2-----|
4|-4-----4------4------------------4-----------------------|
5|---------------------------------------------------------|
6|---------------------------------------------------------|

        . . . . . . . . . . . . .  . . . . . . . . . . . . . .

Chorus
1|-----------------------------------------|
2|-----------------------------------------|
3|---------6---------4-----------2-------4-|
4|-4-4-4-4-6-2-2-2-2-4-0-0-0-0-2-2-2-2-2-4-|
5|-4-4-4-4-4-2-2-2-2-2-0-0-0-0-0-2-2-2-2-2-|
6|-4-4-4-4-4-2-2-2-2-2-0-0-0-0-0-2-2-2-2-2-|
                                       
                                       

Solo (Sounds almost like a keyboard)

1|-17-16-------17-16--------16-17-17-16------17-16-----16-------|
2|-------17----------17-----------------17---------17-----16----|
3|--------------------------------------------------------------|
4|--------------------------------------------------------------|
5|--------------------------------------------------------------|
6|--------------------------------------------------------------|

1|-17-16------17-16------16-17-17-16-------17-16-------19br-----|
2|-------17---------17---------------17----------17-------------|
3|--------------------------------------------------------------|
4|--------------------------------------------------------------|
5|--------------------------------------------------------------|
6|--------------------------------------------------------------|

Interlude (Clean w/Delay)
1|-----------------------------|
2|-----------------------------|
3|-7~~~7-6-7-6/-1--------------|
4|-----------------------------|
5|-----------------------------|
6|-----------------------------|

Main Solo
1--------------------5---5---7-\12-------------|
2|--5~~7-5-7-8-5-8-5---5---5-------------------|
3|---------------------------------------------|
4|---------------------------------------------|
5|---------------------------------------------|
6|---------------------------------------------|

This is an easier way to play the solo. when playing
the 5-5-5-5-5-7 bar the 5th fret on both strings to
make it easier.

This solo riff is played twice as the solo and 
then if you listen carefully to the chorus following 
the riff is also backing it on the second guitar.*

Outro
1|------|
2|------|
3|------|
4|-4~~~~|
5|-4~~~~|
6|-4~~~~|

 Let this last note ring out.


Comments