Dope - With Or Without You Chords & Tabs

 

With Or Without You Chords & Tabs

Dope Chords & Tabs

Version: 2 Type: Bass Tab 0 ratings
1 star 2 stars 3 stars 4 stars 5 stars
comments

With Or Without You Bass Tab

   
Dope - With Or Without You
Tabbed By: ACOmegaMercury
EMail: beaglhug@capital.net
Album: Life

I'm pretty sure this is how it goes...

These are the main riffs, but there are some variations

Riff 1:
G|---------------------------------
D|-------------------------1-1-1-3-
A|-----------------4-4-4-4---------
E|-1-1-1-1-4-4-4-4-----------------
B|---------------------------------

Riff 2:
G|---------------------------
D|-------------------------1-
A|-----------------4-4-4-4---
E|-1-1-1-1-4-4-4-4-----------
B|---------------------------

[ Tab from: http://www.guitartabs.cc/tabs/d/dope/with_or_without_you_btab_ver_2.html ]
Riff 3:
G|----------------------------------------
D|---------3---------1------------------1-
A|-----------------------------4----------
E|-1-1-1-1--------------------------------
B|-----------4-4-4-4---2-2-2-2---4-4-4-4--

Riff 4:
G|---------------
D|-------------1-
A|---------4-----
E|-1---4---------
B|---------------

Intro:
Riff 1- 3x
Riff 2- 1x

Verse 1:
Riff 1- 5x
Riff 2- 1x
Riff 1- 1x
Riff 2- 1x

Verse 2:
Riff 1- 6x

Chorus 1:
Riff 3- 2x
Riff 1- 3x
Riff 2- 1x

Verse 3:
Riff 1- 6x

Chorus 2:
Riff 3- 4x

Bridge:
Riff 4- 2x

Chorus 3:
Riff 3- 4x

Outro:
Riff 1- 4x
===========Artist:Dope
Song: With or Without You
Album: Life
Tabber:  FaTaLiNfErNo@aol.com
Not 100% on this, but it sounds good to me.

Verse:
E-0000-3333-5555-7777

Chorus:
A-----7-----5-----3-----5-
E-0000--0000--0000--0000--

Bridge:
E-0~---3~---5~---7~-
Comments