Dope - Take Your Best Shot Chords & Tabs

 

Take Your Best Shot Chords & Tabs

Dope Chords & Tabs

Version: 2 Type: Bass Tab 0 ratings
1 star 2 stars 3 stars 4 stars 5 stars
comments

Take Your Best Shot Bass Tab

Artist: Dope
Song: Take Your Best Shot
Album: Life
Tabbed By: Me...silly

G|---------------------------------|
D|---------------------------------|
A|---------------------------------|
D|-3-0-0-0-0--3-0-0-0-0--5-6-------|
[ Tab from: http://www.guitartabs.cc/tabs/d/dope/take_your_best_shot_btab_ver_2.html ]
G|-------------------------------------|
D|-------------------------------------|
A|-------------------------------------|
D|-0--0-3-0-0--3--0--0-3-0-0--/6-------|

G|----------------|
D|----------------|
A|----------------|
D|-3-0-x-x-x-x----|

G|-------------------------------------------------------|
D|-------------------------------------------------------|
A|-------------------------------------------------------|
D|-0-0--0-1-0-0-0-0--0-1-0-0-0-0--0-1-0-0-0-0------------|
Comments