Dope - Sick Chords & Tabs

 

Sick Chords & Tabs

Dope Chords & Tabs

Version: 2 Type: Bass Tab 0 ratings
1 star 2 stars 3 stars 4 stars 5 stars
comments

Sick Bass Tab

   
Song: Sick
Artist: Dope
Album: felons and revolutionaries
Tabbed by: Ben Spellman (neb84@yahoo.com)

                    DDD     OOO   PPPP  EEEEE
                    D  D   O   O  P   P E
                    D   D O     O PPPP  EEE
                    D  D   O   O  P     E
                    DDD     OOO   P     EEEEE
                             "SICK"

It is in standard tunning
with a distorted bass

Intro:
Drum intro 2x
                              4x
G:------------------------------:-->This riff is repeated many times 
D:*----------------------------*:   throughout the song
A:*---5------------------------*:
E:--0----0-4--0-3--0-2P0-1-1/7--:
                                         4x
G:-----------------------------------------:
D:*---------------------------------------*:
A:*---------------------------------------*:
E:-0-0-0-0-0--0-0-0-0-0--0-0-0-0-0--0-0-3--:

Verse1:
                              8x
G:------------------------------:
D:*----------------------------*:
A:*---5------------------------*:
E:--0----0-4--0-3--0-2P0-1-1/7--:

Drums
[ Tab from: http://www.guitartabs.cc/tabs/d/dope/sick_btab_ver_2.html ]
Chorus:
                                         4x
G:-----------------------------------------:
D:*---------------------------------------*:
A:*---------------------------------------*:
E:-0-0-0-0-0--0-0-0-0-0--0-0-0-0-0--0-0-3--:

Verse2:
Drums
Guitar (pick slide)
                              8x
G:------------------------------:
D:*----------------------------*:
A:*---5------------------------*:
E:--0----0-4--0-3--0-2P0-1-1/7--:

Chorus:

Outro:
                               3x
G:-------------------------------:
D:*-----------------------------*:
A:*---5-------------------------*:
E:--0----0-4--0-3--0-2P0--1-2-1--:


G:-------------------------------:
D:*-----------------------------*:
A:*-----------------------------*:
E:--1--1--1-1-1--1-1-1-----------:

                                         4x
G:-----------------------------------------:
D:*---------------------------------------*:
A:*---------------------------------------*:
E:-0-0-0-0-0--0-0-0-0-0--0-0-0-0-0--0-0-3--:

Well that is that....
Any complaints direct them to that brick wall
This is what i think it is if i am wrong 
email me at neb84@yahoo.com
R.I.P.  Cliff Burton
Comments