Dope - Rebel Yell Chords & Tabs

 

Rebel Yell Chords & Tabs

Dope Chords & Tabs

Version: 1 Type: Tab 0 ratings
1 star 2 stars 3 stars 4 stars 5 stars
comments

Rebel Yell Tab

Song: Rebel Yell
Band: Dope
Album: n/a (internet exclusive release)
Tabbed by: Craig Shepherd
Email: craigdshepherd@hotmail.com
www.taoy.tk

this is a cover of Billy Idol's 'Rebell Yell'.
you can hear it on DOPE's myspace account. http://www.myspace.com/dope

Tuning: normal

*** intro ***
e|----------------------------------------------|
B|----------------------------------------------|
G|----------------------------------------------|
D|----------------------------------------------|
A|------6--89------6--89------6--89------6--89--|
E|---5----------5----------5----------5---------|
[ Tab from: http://www.guitartabs.cc/tabs/d/dope/rebel_yell_tab.html ]
*** verse *** 
e|----------------------|
B|----------------------|
G|----------------------|
D|-----4-4-3443334-4----|
A|-----4-4-3443334-4----|  
E|----------------------|

*** chorus ***
e|---------------------------|
B|---------------------------|
G|---------------------------|
D|---------------------------|
A|--5-5--3553335-5--3553335--|
E|--5-5--3553335-5--3553335--|

*** solo *** (1st part only - will find rest soon)
e|--------------------------------------------------|
B|--------------------------------------------------|
G|------------------------------------------5/9-----|
D|---76767-67-67676---76767-67-67676-----867--------|
A|--------------------------------------------------|
E|--------------------------------------------------|

  back to Intro, verse and intro again.
Comments