Dope - Pig Society Chords & Tabs

 

Pig Society Chords & Tabs

Dope Chords & Tabs

Version: 2 Type: Tab 0 ratings
1 star 2 stars 3 stars 4 stars 5 stars
comments

Pig Society Tab

   
Song: Pig Society
Band: Dope
Album: Felons And Revolutionaries
Tabber: Riff trudell
Tuning: EBEABE

This is the 100% correct version of PIG SOCIETY from DOPE
you can find tabs in standard tuning but i saw Tripp Eisen playing it 
live and it was like in drop-D but it's open-E tuning

Intro 1
E|----------------------||
B|----------------------||
A|--------------------5-||
E|-0-0--0-0--0-0--0-0-5-||
B|-0-0--0-0--0-0--0-0-3-||
E|-0-0--0-0--0-0--0-0---||

Intro 2
E|-------------------------------||
B|-------------------------------||
A|-------------------------------||
E|-0-0-6-5-0-0-6-5-0-0-6-5-0-0-3-||
B|-0-0-6-5-0-0-6-5-0-0-6-5-0-0-3-||
E|-0-0-6-5-0-0-6-5-0-0-6-5-0-0-3-||

Verse
E|-----------------------------------------||
B|-----------------------------------------||
A|-----------------------------------------||
E|-0x0-3-6-3-0x0-3-3-3-0x0-6-6-6-0x0-6-5-3-||
B|-0x0-3-6-3-0x0-3-3-3-0x0-6-6-6-0x0-6-5-3-||
E|-0x0-3-6-3-0x0-3-3-3-0x0-6-6-6-0x0-6-5-3-||

Chorus
E|--------------------------------------|------------------------------||
B|--------------------------------------|------------------------------||
A|--------------------------------------|----------------------------5-||
E|-0-0-0-3-3-3-3-3-6-6-6-5-3-5-3-playX3-|--0-0-0-3-3-3-3-3-6-6-6-5-3-5-||
B|-0-0-0-3-3-3-3-3-6-6-6-5-3-5-3--------|--0-0-0-3-3-3-3-3-6-6-6-5-3-3-||
E|-0-0-0-3-3-3-3-3-6-6-6-5-3-5-3--------|--0-0-0-3-3-3-3-3-6-6-6-5-3---||

Verse variation 1
E|--------------------------------------------||
B|--------------------------------------------||
A|--------------------------------------------||
E|-0x0-3-6-3-0x0-3-3-3-0x0-6-5-3-0x-6-5-0-5-3-||
B|-0x0-3-6-3-0x0-3-3-3-0x0-6-5-3-0x-6-5-0-5-3-||
E|-0x0-3-6-3-0x0-3-3-3-0x0-6-5-3-0x-6-5-0-5-3-||
[ Tab from: http://www.guitartabs.cc/tabs/d/dope/pig_society_tab_ver_2.html ]
Interlude
E|-------------------------------------------------------------||
B|-------------------------------------------------------------||
A|-----------------------------------------------------------5-||
E|-0-0-6-5-0-0-6-5-0-0-6-5-0-0-3-0-0-6-5-0-0-6-5-0-0-6-5-0-0-5-||
B|-0-0-6-5-0-0-6-5-0-0-6-5-0-0-3-0-0-6-5-0-0-6-5-0-0-6-5-0-0-3-||
E|-0-0-6-5-0-0-6-5-0-0-6-5-0-0-3-0-0-6-5-0-0-6-5-0-0-6-5-0-0---||

Verse variation 2
E|--------------------------------------------||
B|--------------------------------------------||
A|--------------------5-----------------------||
E|-0-0--0-0--0-0--0-0-5-0-0--0-0--0-0-R-6-5-3-||
B|-0-0--0-0--0-0--0-0-3-0-0--0-0--0-0-R-6-5-3-||
E|-0-0--0-0--0-0--0-0---0-0--0-0--0-0-R-6-5-3-||

Outro
E|---------------||
B|---------------||
A|---------------||
E|-0-0--0-0--0-0-||
B|-0-0--0-0--0-0-||
E|-0-0--0-0--0-0-||

Order

Intro 1 X2
Intro 2 X4
Verse X4
Chorus X1
Verse variation 1 X1
Verse X2
Chorus X1
Interlude X2
Verse variation 2 X1
Verse variation 1 X1
Verse X2
Chorus X1
Interlude X4
Intro 1 X1
Intro 2 X2
Outro X1
===========Dope - Pig Society
Guitarist:Tripp Eisen
standard tuning

G|--------------------7-|
D|-2-2--2-2--2-2--2-2-7-|
A|-2-2--2-2--2-2--2-2-5-|
E|-0-0--0-0--0-0--0-0---|

G|-----7-6-----7-6-----7-6-----4|
D|-----8-7-----8-7-----8-7-----5|
A|-----8-7-----8-7-----8-7-----5|
E|-0-0-6-5-0-0-6-5-0-0-6-5-0-0-3|

G|-----4-7-4-----4-4-4-----7-7-7-----7-6-4|
D|-2x2-5-8-5-2x2-5-5-5-2x2-8-8-8-2x2-8-7-5|
A|-2x2-5-8-5-2x2-5-5-5-2x2-8-8-8-2x2-8-7-5|
E|-0x0-3-6-3-0x0-3-3-3-0x0-6-6-6-0x0-6-5-3|

G|-------4-4-4-4-4-7-7-7-6-4-6-4|  |-------4-4-4-4-4-7-7-7-6-4-7|
D|-2-2-2-5-5-5-5-5-8-8-8-7-5-7-5|3x|-2-2-2-5-5-5-5-5-8-8-8-7-5-7|
A|-2-2-2-5-5-5-5-5-8-8-8-7-5-7-5|  |-2-2-2-5-5-5-5-5-8-8-8-7-5-5|
E|-0-0-0-3-3-3-3-3-6-6-6-5-3-5-3|  |-0-0-0-3-3-3-3-3-6-6-6-5-3--|

G|-----7-6-----7-6-----7-6-----4-----7-6-----7-6-----7-6-----7|
D|-----8-7-----8-7-----8-7-----5-----8-7-----8-7-----8-7-----7|
A|-----8-7-----8-7-----8-7-----5-----8-7-----8-7-----8-7-----5|
E|-0-0-6-5-0-0-6-5-0-0-6-5-0-0-3-0-0-6-5-0-0-6-5-0-0-6-5-0-0--|

G|--------------------7----------------7-6-4|
D|-2-2--2-2--2-2--2-2-7-2-2--2-2--2-2--8-7-5|
A|-2-2--2-2--2-2--2-2-5-2-2--2-2--2-2--8-7-5|
E|-0-0--0-0--0-0--0-0---0-0--0-0--0-0--6-5-3|
Comments