Dope - Pig Society Chords & Tabs

 

Pig Society Chords & Tabs

Dope Chords & Tabs

Version: 1 Type: Tab 0 ratings
1 star 2 stars 3 stars 4 stars 5 stars
comments

Pig Society Tab

   
Guitarist:Tripp Eisen
standard tuning

G|--------------------7-|
D|-2-2--2-2--2-2--2-2-7-|
A|-2-2--2-2--2-2--2-2-5-|
E|-0-0--0-0--0-0--0-0---|

G|-----7-6-----7-6-----7-6-----4|
D|-----8-7-----8-7-----8-7-----5|
A|-----8-7-----8-7-----8-7-----5|
E|-0-0-6-5-0-0-6-5-0-0-6-5-0-0-3|

G|-----4-7-4-----4-4-4-----7-7-7-----7-6-4|
D|-2x2-5-8-5-2x2-5-5-5-2x2-8-8-8-2x2-8-7-5|
A|-2x2-5-8-5-2x2-5-5-5-2x2-8-8-8-2x2-8-7-5|
E|-0x0-3-6-3-0x0-3-3-3-0x0-6-6-6-0x0-6-5-3|
[ Tab from: http://www.guitartabs.cc/tabs/d/dope/pig_society_tab.html ]
G|-------4-4-4-4-4-7-7-7-6-4-6-4|  |-------4-4-4-4-4-7-7-7-6-4-7|
D|-2-2-2-5-5-5-5-5-8-8-8-7-5-7-5|3x|-2-2-2-5-5-5-5-5-8-8-8-7-5-7|
A|-2-2-2-5-5-5-5-5-8-8-8-7-5-7-5|  |-2-2-2-5-5-5-5-5-8-8-8-7-5-5|
E|-0-0-0-3-3-3-3-3-6-6-6-5-3-5-3|  |-0-0-0-3-3-3-3-3-6-6-6-5-3--|

G|-----7-6-----7-6-----7-6-----4-----7-6-----7-6-----7-6-----7|
D|-----8-7-----8-7-----8-7-----5-----8-7-----8-7-----8-7-----7|
A|-----8-7-----8-7-----8-7-----5-----8-7-----8-7-----8-7-----5|
E|-0-0-6-5-0-0-6-5-0-0-6-5-0-0-3-0-0-6-5-0-0-6-5-0-0-6-5-0-0--|

G|--------------------7----------------7-6-4|
D|-2-2--2-2--2-2--2-2-7-2-2--2-2--2-2--8-7-5|
A|-2-2--2-2--2-2--2-2-5-2-2--2-2--2-2--8-7-5|
E|-0-0--0-0--0-0--0-0---0-0--0-0--0-0--6-5-3|
Comments