Dope - Nothing Why Chords & Tabs

 

Nothing Why Chords & Tabs

Dope Chords & Tabs

Version: 1 Type: Tab 0 ratings
1 star 2 stars 3 stars 4 stars 5 stars
comments

Nothing Why Tab

   
Dope - Nothing(Why?)
Track 3 on Life
Guitar : Acey Slade \\m// and Virus
Drop D Tuning (D,A,D,G,B,E)

Intro
                       A.              B.
E|--------------------|--------------|-------------|
B|--------------------|--------------|-------------|
G|--------------------|--------------|-------------|
D|--3-0--0-3-5--0-3-0-|-0-3/-8-------|-0-3-1-0-----|
A|--3-0--0-3-5--0-3-0-|-0-3/-8-------|-0-3-1-0-----|
D|--3-0--0-3-5--0-3-0-|-0-3/-8-------|-0-3-1-0-----| (x1)
(Play first part 1x, then ending a.,then repeat first part with ending b.)

Verse
                       A.              B.
E|--------------------|--------------|-------------|
B|--------------------|--------------|-------------|
G|--------------------|--------------|-------------|
D|--------------------|--------------|-------------|
A|--------------------|--------------|-------------|
D|--3-0--0-3-5--0-3-0-|-0-3/-8-------|-0-3-1-0-----| (x2)
PM  . .  . . .  . . .   . .            . . . 
(Play first part 1x, then ending a.,then repeat first part with ending b.)

                       A.              B.
E|--------------------|--------------|-------------|
B|--------------------|--------------|-------------|
G|--------------------|--------------|-------------|
D|--3-0--0-3-5--0-3-0-|-0-3/-8-------|-0-3-1-0-----|
A|--3-0--0-3-5--0-3-0-|-0-3/-8-------|-0-3-1-0-----|
D|--3-0--0-3-5--0-3-0-|-0-3/-8-------|-0-3-1-0-----| (x2)
PM  . .  . . .  . . .   . .            . . .

Chorus
E|--------------------------------------|
B|--------------------------------------|
G|--------------------------------------|
D|-5~--1~-1-3-3-3-1-3-3-3-1-3-3-3-1-3-3-|
A|-5~--1~-1-3-3-3-1-3-3-3-1-3-3-3-1-3-3-|
D|-5~--1~-1-3-3-3-1-3-3-3-1-3-3-3-1-3-3-| (x4)

After Chorus
                       A.              B.
E|--------------------|--------------|-------------|
B|--------------------|--------------|-------------|
G|--------------------|--------------|-------------|
D|--3-0--0-3-5--0-3-0-|-0-3/-8-------|-0-3-1-0-----|
A|--3-0--0-3-5--0-3-0-|-0-3/-8-------|-0-3-1-0-----|
D|--3-0--0-3-5--0-3-0-|-0-3/-8-------|-0-3-1-0-----| (x1)
(Play first part 1x, then ending a.,then repeat first part with ending b.)

Verse
Guitar 2 does the vibratos        
                         A.              B.
E|--------------------|--------------|-------------|
B|--------------------|-----v17------|----v17------|
G|--------------------|--------------|-------------|
D|--------------------|--------------|-------------|
A|--------------------|--------------|-------------|
D|--3-0--0-3-5--0-3-0-|-0-3/-8-------|-0-3-1-0-----| (x2)
PM  . .  . . .  . . .   . .            . . . 
(Play first part 1x, then ending a.,then repeat first part with ending b.)
[ Tab from: http://www.guitartabs.cc/tabs/d/dope/nothing_why_tab.html ]
                       A.              B.
E|--------------------|--------------|-------------|
B|--------------------|--------------|-------------|
G|--------------------|--------------|-------------|
D|--3-0--0-3-5--0-3-0-|-0-3/-8-------|-0-3-1-0-----|
A|--3-0--0-3-5--0-3-0-|-0-3/-8-------|-0-3-1-0-----|
D|--3-0--0-3-5--0-3-0-|-0-3/-8-------|-0-3-1-0-----| (x2)
PM  . .  . . .  . . .   . .            . . .
                                  (play ending b. once)
Chorus
E|--------------------------------------|
B|--------------------------------------|
G|--------------------------------------|
D|-5~--1~-1-3-3-3-1-3-3-3-1-3-3-3-1-3-3-|
A|-5~--1~-1-3-3-3-1-3-3-3-1-3-3-3-1-3-3-|
D|-5~--1~-1-3-3-3-1-3-3-3-1-3-3-3-1-3-3-| (x4)

After Chorus (the WHY? part)
Guitar
E|--------------------------------------|
B|--------------------------------------|
G|--------------------------------------|
D|-5~--1~-1-3-3-3-1-3-3-3-1-3-3-3-1-3-3-|
A|-5~--1~-1-3-3-3-1-3-3-3-1-3-3-3-1-3-3-|
D|-5~--1~-1-3-3-3-1-3-3-3-1-3-3-3-1-3-3-|

(This is played behind the guitars, it's some funky effect,
 but this is how to play it on guitar. there's another effect 
  I haven't been able to tab behind Edsel's voice)
E|--------------------------------------|
B|-v15~--v13~--v10~--v15~--v17~--v20~---|
G|--------------------------------------|
D|--------------------------------------|
A|--------------------------------------|
D|--------------------------------------|

                       A.              B.
E|--------------------|--------------|-------------|
B|--------------------|--------------|-------------|
G|--------------------|--------------|-------------|
D|--3-0--0-3-5--0-3-0-|-0-3/-8-------|-0-3-1-0-----|
A|--3-0--0-3-5--0-3-0-|-0-3/-8-------|-0-3-1-0-----|
D|--3-0--0-3-5--0-3-0-|-0-3/-8-------|-0-3-1-0-----| (x1)
(Play first part 1x, then ending a.,then repeat first part with ending b.)

Verse
Guitar 2 plays the vibrato and hammer-ons  
                       A.              B.
E|--------------------|--------------|-------------|
B|--------------------|-----v17------|-------------|
G|--------------------|--------------|-------------|
D|--------------------|--------------|-13h15h16----|
A|--------------------|--------------|-------------|
D|--3-0--0-3-5--0-3-0-|-0-3/-8-------|-0-3-1-0-----| (x2)
PM  . .  . . .  . . .   . .            . . . 
(Play first part 1x, then ending a.,then repeat first part with ending b.)

Chorus
E|--------------------------------------|
B|--------------------------------------|
G|--------------------------------------|
D|-5~--1~-1-3-3-3-1-3-3-3-1-3-3-3-1-3-3-|
A|-5~--1~-1-3-3-3-1-3-3-3-1-3-3-3-1-3-3-|
D|-5~--1~-1-3-3-3-1-3-3-3-1-3-3-3-1-3-3-| (x4)

Outro (the WHY? part)
Guitar
E|--------------------------------------|
B|--------------------------------------|
G|--------------------------------------|
D|-5~--1~-1-3-3-3-1-3-3-3-1-3-3-3-1-3-3-|
A|-5~--1~-1-3-3-3-1-3-3-3-1-3-3-3-1-3-3-|
D|-5~--1~-1-3-3-3-1-3-3-3-1-3-3-3-1-3-3-|

(This is played behind the guitars, it's some funky effect,
 but this is how to play it on guitar. there's another effect 
  I haven't been able to tab behind Edsel's voice)
E|--------------------------------------|
B|-v15~--v13~--v10~--v15~--v17~--v20~---|
G|--------------------------------------|
D|--------------------------------------|
A|--------------------------------------|
D|--------------------------------------|

                       A.              B.
E|--------------------|--------------|-------------|
B|--v20~~~~~~~~~~~~~~~~~~~~~~~~------|-------------|
G|--------------------|--------------|-------------|
D|--3-0--0-3-5--0-3-0-|-0-3/-8-------|-0-3-1-0-0---|
A|--3-0--0-3-5--0-3-0-|-0-3/-8-------|-0-3-1-0-0---|
D|--3-0--0-3-5--0-3-0-|-0-3/-8-------|-0-3-1-0-0---| (x1)
(Play first part 1x, then ending a.,then repeat first part with ending b.)


Have Fun and Rock On. E-mail me with comments, questions, or suggestions.
XSongomonx@aol.com 

(If I missed anything while typing up this tab, I'll edit it as soon as I notice)
Comments