Dope - Debonaire Chords & Tabs

 

Debonaire Chords & Tabs

Dope Chords & Tabs

Version: 4 Type: Tab 0 ratings
1 star 2 stars 3 stars 4 stars 5 stars
comments

Debonaire Tab

   
======
 DOPE
======
Song: Debonaire
Album: Felons And Revolutionaries
Tabbed by: Craig Shepherd
Email: craigdshepherd@hotmail.com

Tuning: normal

*** Heavy Distortion ***
e|--------------------|
B|--------------------|
G|--------------------|
D|--------------------|
A|--------------------|
E|--2222222222222244--| (4 times)


e|---------------------------|
B|---------------------------|
G|---------------------------|
D|---------------------------|
A|---0--3530---0--353-0350---|
E|---0--3530---0--353-0350---| (4 times)
      X     X   X
 

   verse
e|--------------------|
B|--------------------|
G|--------------------|
D|--------------------|
A|--------------------|
E|--2222222222222244--| (4 times)
[ Tab from: http://www.guitartabs.cc/tabs/d/dope/debonaire_tab_ver_4.html ]
  verse 2
e|---------------------------|
B|---------------------------|
G|---------------------------|
D|---------------------------|
A|---0--3530---0--353-0350---|
E|---0--3530---0--353-0350---| (4 times)
      X     X   X

***back to verse***
***then verse 2***

***verse 3***   (I dont care nothin about it)
e|--------------------------------|
B|--------------------------------|
G|--------------------------------|
D|----5~--------4~----------------|
A|----3~--------2~----------------|
E|--------------------------------|


e|---------------------------|
B|---------------------------|
G|---------------------------|
D|---------------------------|
A|---0--3530---0--353-0350---|
E|---0--3530---0--353-0350---| (2 times)
      X     X   X

then...

***verse***

***verse 2***

***verse 3***



| /  slide up
| \  slide down
| h  hammer-on
| p  pull-off
| ~  vibrato
| +  harmonic
| x  Mute note
===============================================================================
Comments