Doors - Youre Lost Little Girl Chords & Tabs

 

Youre Lost Little Girl Chords & Tabs

Doors Chords & Tabs

Version: 4 Type: Bass Tab

Youre Lost Little Girl Bass Tab

-------------------------------------------------------------------------------
		You’re Lost Little Girl – The Doors
-------------------------------------------------------------------------------

Tabbed By : Bird of Prey
e-mail: maverick_missile@hotmail.com

Intro/chorus:
G|-------------------|
D|---4-2-------------|
A|-------5-3-2---2---|
E|-0-----------5---3-|
”You’re lost little girl”


Chorus ending:
G|------------------|
D|----------------2-|
A|---5---5----3-----|
E|-3---3---11---5---|
”…are you?”


Verse:
G|-------------------|
D|-------------------|
A|-5-----5-------2-4-|
E|---2-5---3-3-5-----|


Verse ending:
G|-----------------|
D|-----------------|
A|-5-----5---5--55-|
E|---2-5---3--5----|

[ Tab from: http://www.guitartabs.cc/tabs/d/doors/youre_lost_little_girl_btab_ver_4.html ]
Verse 2:
G|---------------------------------|
D|-----------------33-33-3---------|
A|---------22-22-2-----------------|
E|-33-33-3-----------------55-55-5-|
”I think that you know what to do, girl”


Solo:
G|-----------------|      |----------------|
D|-2---------------|      |--------------2-|
A|---5---2---2-----|      |---2-5---2------|
E|-----2---5---5---|      |-5-----5----5---|
Repeat several times        End with


Figure out how many times to play each part and the pace by listening to the song. 
the order:

Order:

Intro/chorus
Chorus ending
Verse
Verse ending
Verse 2
Verse
Verse ending
Intro/chorus
Chorus ending
Solo
Verse
Verse ending
Verse 2
Verse
Verse ending
Intro/chorus


This is my first tab. I tried to make it easy to play for you all. Hope you'll enjoy it! :)