Doors - Wild Child Chords & Tabs

 

Wild Child Chords & Tabs

Doors Chords & Tabs

Version: 2 Type: Tab 0 ratings
1 star 2 stars 3 stars 4 stars 5 stars
comments

Wild Child Tab

Artist: The Doors
Song: Wild Child
Album: The Soft Parade



Main Riff
|---------------------------|
|---------------------------|
|---------------------------|
|----------------------0----|
|---------------------------|
|-3-3-5b6----3-3-3-3-1------|

[ Tab from: http://www.guitartabs.cc/tabs/d/doors/wild_child_tab_ver_2.html ]
|-----------------------------------------------------------------|
|-----------------------------------------------------------------|
|-----5-----5-----5--------4-----4-----4----5-3---5-3---5-3---5-3-| 
|---6-----6-----6--------5-----5-----5----------5-----5-----5-----|
|-7-----7-----7--------6-----6-----6------------------------------|
|-----------------------------------------------------------------|
(They use a slide but I play it this so
i dont have to tune the guitar different)
Comments