Doors - Twentieth Century Fox Chords & Tabs

 

Twentieth Century Fox Chords & Tabs

Doors Chords & Tabs

Version: 4 Type: Tab 0 ratings
1 star 2 stars 3 stars 4 stars 5 stars
comments

Twentieth Century Fox Tab

   
----------------------------------------------------------------------------
			 "Twerntieth Century Fox" ~ The Doors              
----------------------------------------------------------------------------
Tabbed by:Gitar07
Email:nickwun07@msn.com

Tuning: E A D G B E

VERSE
e|-----------|-----------------------------|-----0----3--------------------|
B|--1--------|----2---------2---------2----|-----2----0-----2-----2--------|
G|------2----|---------2-------------------|-----2----0--------------------|
D|-----------|-----------------------------|-------------------------------|
A|-----------|-----------------------------|-------------------------------|
E|-----------|-----------------------------|-------------------------------|

e|-----------------------|---0-----------------|---0----0------------------|
B|---2-------2-----------|---2------2---2------|---2---------------2-------|
G|-------2-------2---0---|---2--------------2--|---2---------2-------------|
D|-----------------------|---------------------|---------------------------|
A|-----------------------|---------------------|---------------------------|
E|-----------------------|---------------------|---------------------------|

e|---0----------------|---0--------------------|---0----3------------------|
B|---2----2---2-------|---2----2---------------|---2----0------------------|
G|---2------------2---|---2--------2---2---0---|---2----0----2-------------|
D|--------------------|------------------------|---------------------------|
A|--------------------|------------------------|---------------------------|
E|--------------------|------------------------|---------------------------|
[ Tab from: http://www.guitartabs.cc/tabs/d/doors/twentieth_century_fox_tab_ver_4.html ]
e|-------------------|-------------------|--------0------------------------|
B|---2---2---0---0---|-------------------|--------0------------------------|
G|-------------------|---2---2---2---2---|--------1------------------------|
D|-------------------|---0-------3-------|---2-----------------------------|
A|-------------------|-------------------|---------------------------------|
E|-------------------|-------------------|---------------------------------|


CHORUS
e|---0---0---0---0---|---0---0---0---0---|---0---0---0---0-------0---0-----|
B|---0---0-----------|---2---------------|---------------------------------|
G|---1---1-----------|---2---------------|-------------------2-------------|
D|-------------------|-------------------|---------------------------------|
A|-------------------|-------------------|---------------------------------|
E|-------------------|-------------------|---------------------------------|

e|---0----0---0---0--|---0---0---0-----------|----------0-------0----------|
B|---2---------------|-----------------------|---1------1------------------|
G|---2---------------|---------------2---2---|----------2------------------|
D|-------------------|-----------------------|-----------------------------|
A|-------------------|-----------------------|-----------------------------|
E|-------------------|-----------------------|-----------------------------|

e|----------3---0----|-----------------------|-----------------------------|
B|---0------0--------|-----------------------|-----------------------------|
G|----------0--------|---2---2---------------|---0----2--------------------|
D|-------------------|-----------------------|-----------------------------|
A|-------------------|-----------------------|-----------------------------|
E|-------------------|-----------------------|-----------------------------|

e|-----------0-------|---0-----0----0----0---|---0---0---0---------------0-|
B|-----------0-------|---0-----0-------------|---------------3---3---2---2-|
G|-----------1-------|---1-----1-------------|---------------------------2-|
D|---2---------------|-----------------------|-----------------------------|
A|-------------------|-----------------------|-----------------------------|
E|-------------------|-----------------------|-----------------------------|

============================================================================
Comments