Doors - The Crystal Ship Chords & Tabs

 

The Crystal Ship Chords & Tabs

Doors Chords & Tabs

Version: 2 Type: Bass Tab 0 ratings
1 star 2 stars 3 stars 4 stars 5 stars
comments

The Crystal Ship Bass Tab

The Crystal Ship - Doors

use good judgement for the timing as I had trouble showing it.
[ Tab from: http://www.guitartabs.cc/tabs/d/doors/the_crystal_ship_btab_ver_2.html ]
1st verse
  "slip into..."
G|-------------------------------------------------------------------------------------------
D|--------------------------------------------4-------4--------------------------------------
A|-----4----------4--7-4-2--2-5-2---2-5-2-------------------------2-2-2-2-4-4-4--4-4-4--4-2--
E|2--5----5-\0--5-----------------3-------2-2---2-2-2---2-5-5-5-5---------------------------2
     
                        **********************************************************
----------------------------------------------------------------------------------|
----------------------------------------------------------------------------------|
--/7-7-7-\------/7-7-7-/9-9-9-/5-5-5--------/7-7-7---4-2-4--4-2-4---4-2-4-2-4-2-4-|
----------2-2-2----------------------/5-5-5--------2--------------2---------------|

for the 2nd and 3rd verse, replace the notes I have marked as *** with:
G|-----------------------------|
D|----4----4--------4------4---|
A|-----------------------------|
E|2-2---2----2--2-2---2--2---2-|

 then the solo:
G|-------------------------------------------------------------------------------------------|
D|-------------------------------------------------------------------------------------------|
A|99999999777777779999999977777777/9-9-9-/5-5-5--------/7-7-7---4-2-4--4-2-4---4-2-4-2-4-2-4-|
E|----------------------------------------------/5-5-5--------2--------------2---------------|

For the last verse, replace the notes marked as *** with 
a few F#'s on the 9th fret of the A string.

Tabbed by Achilles (blue_sincere@hotmail.com)
Comments