Doors - Runnin Blue Chords & Tabs

 

Runnin Blue Chords & Tabs

Doors Chords & Tabs

Version: 1 Type: Bass Tab 0 ratings
1 star 2 stars 3 stars 4 stars 5 stars
comments

Runnin Blue Bass Tab

Runnin' Blue - The Doors

x=ghost note

  intro
G|------------------|
D|-----------------5|
A|---------------57-|
E|5---9\5-5-73------|

  verse
                        "It was easy"   "much too easy"
G|------------------------------------------------------|
D|--x7--x7---------97------------9--7-------------------|
A|----------------9-----3-7-7889--------3---------------|
E|x5--x5--5--3---7------------------------0-0112-7--5---|
[ Tab from: http://www.guitartabs.cc/tabs/d/doors/runnin_blue_btab.html ]
  chorus  "alright, look at my shoes not quite the the walkin' blues..."
G|-------------------------------------------------------------5-7--755-7-5-|
D|-----7--7---7--7---77-7--5-75------7--7--7--7---77---------57-7--7---7----|
A|445------77-----55-----57----5--5------77----55----77777777---------------|
E|--------------------------------------------------------------------------|

   verse 2 intro
G|------------------|
D|--x7--x7---------5|
A|---------------57-|
E|x5--x5--5--3------|

"runnin' fast,
 runnin' blue
 goin' so fast.."
     riff
G|-------------|
D|---------53--|
A|---3--3----3-|
E|5------55----|

 * solo not tabbed

  outro
G|------------------------------------------------------|
D|---7-7--5-7-----77---5-7-------7-7--5-7-----77--57----|
A|5-----57-----55----57---75--5-----57-----55----5-0----|
E|------------------------------------------------------|

tabbed by Achilles (blue_sincere@hotmail.com)

Comments