Doors - Roadhouse Blues Chords & Tabs

 

Roadhouse Blues Chords & Tabs

Doors Chords & Tabs

Version: 5 Type: Tab 0 ratings
1 star 2 stars 3 stars 4 stars 5 stars
comments

Roadhouse Blues Tab

   
Roadhouse Blues
E|--------------------------------------------------|
B|--------------------------------------------------|
G|--------------------------------------------------|
D|--------------------------------------------------|
A|--------------------------------------------5h6h7-|
E|-0--0--0--0--0--0--5h6h7--0--0--0--0--0--0--------|

-----------------------------------------|
-----------------------------------------|
-----------------------------------------|
--------------------------5--------------|
-----------------------------7h5p7---5---|
-0--0--0--0--0--0--5h6h7-----------7---7-|

   E7
(1)keep your eyes on the road, your hands upon the wheel
(2)in  back of the roadhouse we've got some bungalows
(3)well, i woke up this morning, i got myself a beer

keep your eyes on the road, your hands upon the wheel
in  back of the roadhouse we've got some bungalows
well, i woke up this morning, i got myself a beer

E|--------------------------------------------------------|
B|--------------------------------------------------------|
G|--------------------------------------------------------|
D|-----------------------------------------b5-------------|
A|-5---5---5-------7-5------------------------7p5h7---5---|
E|---7---7---7---------7-5-3b4--0-0--5h6h7----------7---7-|

E|---------------------------------------------|
B|--------------------------------------9------|
G|7-7---------7-7---------7-7---------7-7------|
D|9-9---------9-9---------9-9---------9-9------|
A|7-7---5-----7-7---5-----7-7---5-----7-7---5--|
E|--------7-----------7-----------7-----------7|

E|-------------------------------------------------|
B|-------------------------------------------------|
G|7-7---------7-7---------7-7----------------------|
D|9-9---------9-9---------9-9---------b5-----------|
A|7-7---5-----7-7---5-----7-7---5---5---7p5h7---5--|
E|--------7-----------7-----------7-----------7---7|

E|--------------------------------------------------------|
B|--------------------------------------------------------|
G|--------------------------------------------------------|
D|-----------------------------------------b5-------------|
A|-5---5---5-------7-5------------------------7p5h7---5/14|
E|---7---7---7---------7-5-3b4--0-0--5h6h7----------7-----|
we're going to the roadhouse we're gonna have a real, good time
and that's for the people who like to go down slow
the futures uncertain and the end is always near

chorus
------------------------|
------------------------|
------------------------|
------------------------|
-7--7--7--7--7--7--9--7-|
-5--5--8--9--5--5--5--5-|
[ Tab from: http://www.guitartabs.cc/tabs/d/doors/roadhouse_blues_tab_ver_5.html ]
let it roll, baby roll
let it roll, baby roll
let it roll, baby roll
       B7            C7   B7
(1,2)let it roll              all night long
       B7            C7   C#7  D7 Eb7  E
(3)  let it roll

solo
(3X                                                )
E|-------13-13-------13-13--------13-13-------13-13---|
B|-------13-13-------13-13--------13-13-------13-13---|
G|-15b16-------15b16--------15b16-------15b16---------|
D|----------------------------------------------------|
A|----------------------------------------------------|
E|----------------------------------------------------|

-------13-13-------13----------------16b17-16-13-|
-------13-13-------13-15b-15-----13--------------|
-15b16-------15b16-----------15b-----------------|
-------------------------------------------------|
-------------------------------------------------|
-------------------------------------------------|

-------13-------13-------13-13-------13-13-------13-13------------|
-16b17----16b17----16b17-------16b17-------16b17------16b17r16p13-|
------------------------------------------------------------------|
------------------------------------------------------------------|
------------------------------------------------------------------|
------------------------------------------------------------------|

-------------------------------------------------------|
-------13-13-------13-13----------------13----------13-|
-15b16-------15b16-------15b16r15p13----13-15p13----13-|
-------------------------------------15----------15----|
-------------------------------------------------------|
-------------------------------------------------------|
(4x                      )
---------------------------- --------------- -5b-5p3---|
---------------------------- -----3--------- --------5-|
------9-------9-----9-----9- -4s5---2b3-0--- ----------|
-9h11----9h11---9h11---9h11- -------------2- ----------|
---------------------------- --------------- ----------|
---------------------------- --------------- ----------|
ashen lady give up your vow
ashen lady give up your vow
save our city
save our city
right now
E|--------------|
B|--------------|
G|--------------|
D|--------------|
A|7-7---7-5-----|
E|-----------7--|

FINAL
                                  E E9
-16b17-13-----------------------------|
----------16-13-------------------9-7-|
----------------15b16r15-13----13-9-7-|
----------------------------15----9-6-|
----------------------------------7-7-|
--------------------------------------|

ALDO ROJAS (14)
SOY PERUANO
Comments