Doors - Riders On The Storm Chords & Tabs

 

Riders On The Storm Chords & Tabs

Doors Chords & Tabs

Version: 3 Type: Bass Tab 0 ratings
1 star 2 stars 3 stars 4 stars 5 stars
comments

Riders On The Storm Bass Tab

This is a very cool song!

Main Riff
G----------------------|
D----------------------|  
A-----2----2----0-4--0-|
E--0----3----0---------|

Verse Structure
G-----------------------|------------------|-------------------------|
D---------------------x4|------------------|-------------------------|
A---2---2---0--4--0-----|------------------|---2---2-----0--4--0--x2-|
E-0--3---0--------------|55---55--55---55--|-0----3----0-------------|
[ Tab from: http://www.guitartabs.cc/tabs/d/doors/riders_on_the_storm_btab_ver_3.html ]
G------------------------|---------------------|
D------------------------|---------------------| 
A-5-5-5-5-pause-3-3-3-2-3|----2----2----0-4--0-| x2
E------------------------|-0----3----0---------|

I have no idea how to notate the structure acurately, because it meanders quite a
lot...the whole song is based upon the structures above. It is relatively easy to
work out where the parts go when you listen to the song. Feel free to email me with
amendments (suicidal_fairies@hotmail.com)
Comments