Doors - People Are Strange Chords & Tabs

 

People Are Strange Chords & Tabs

Doors Chords & Tabs

Version: 2 Type: Bass Tab 0 ratings
1 star 2 stars 3 stars 4 stars 5 stars
comments

People Are Strange Bass Tab

The Doors - "People Are Strange" - Bass Tab

Verse:
	                    . 		       	
|----------|-----------|---4------|
|*---4---4-|-----------|---------*|
|*-2---2---|---5-------|-2---R-R-*| (x2)
|----------|-3---2-3-5-|----------|
   1 2 3 4   1 2 3 & 4   1 2 3 4

|-----------|-----------|-----------|-----------------|
|---4-----4-|---4-----4-|---4-----4-|-----------------|
|-2---5-2---|-2---5-2---|-2---5-2---|-2-2-0-0---------|
|-----------|-----------|-----------|---------3-3-2-2-|
  1 2 & 3 4   1 2 & 3 4   1 2 & 3 4   1 & 2 & 3 & 4 &

Chorus:

|------------|-------------|-------------|----------------|
|*-----2-0---|-----2-------|-----2-------|---1---4---2---*|
|*---2-----2-|-0-3---2-----|-0-3---2-----|-2-------2---2-*|(x2)
|--0---------|-----------2-|-----------2-|----------------|
   1 2 3 4 &   1 2 3 4 & a   1 2 3 4 & a   1 2 & a 3 & 4

Solo:

[ Tab from: http://www.guitartabs.cc/tabs/d/doors/people_are_strange_btab_ver_2.html ]
                   _____          ____		
				           |1.            |2. 	
|------4-----|-----4-----|-----------|--------------|---------|
|*---4-----4-|---4-----4-|-----2-0---|-----2---2-4-*|---------|
|*-2-----0---|-2-----0---|---2-----2-|---2---0-----*|-.-------|
|------------|-----------|-0---------|-0------------|-0-------|
   1 2 3 4 &   1 2 3 4 &   1 2 3 4 &   1 2 3 & 4 &    1 2 3 4

End:

|-----4---|-----------|---------|---------|---------|---------|
|---4---4-|-----------|---4---4-|---4---4-|---------|---4---4-|
|-2-------|---5-----0-|-2---2---|-2---2---|---5---5-|-2---2---|
|---------|-3---2-3---|---------|---------|-3---3---|---------|
  1 2 3 4   1 2 3 & 4   1 2 3 4   1 2 3 4   1 2 3 4   1 2 3 4

|---------|---------|
|---------|---------|
|-2---2---|-2---2---|
|---------|---------|
  1 2 3 4   1 2 3 4

By: Johari Taylor
E-mail: viking@powerup.com.au


Comments