Doors - Love Street Chords & Tabs

 

Love Street Chords & Tabs

Doors Chords & Tabs

Version: 1 Type: Bass Tab

Love Street Bass Tab

My First Tab! Sounds Perfect!
  
intro  verse
G|----|--------------------------|
D|-14/|7-7-7/5-5-5--5-5/3-3-3\---|
A|----|---7-----5----5-----3-----|
E|----|-----------3--------------|x3


G|-------------------------|
D|9-9-9--7-7--7-7--5-5\----|
A|---9----7----7----5------|
E|-----5----5----3---------|

G|--------------------------|
D|7-7-7/5-5-5--5-5/3-3-3\---|
A|---7-----5----5-----3-----|
E|-----------3--------------|

G|----------------------------------------------|
D|-5555-7777-8888/333---------------------------|
A|-------------------3--------------------------|
E|--------------------1\3333/1111\6666/55555555\|

[ Tab from: http://www.guitartabs.cc/tabs/d/doors/love_street_btab.html ]
G|--------------------------|
D|-9-9-9/7-7-7--7-7/5-5-5\--|
A|----9-----7----7-----5----|
E|------------5-------------|x2


G|-------------------------------------------------------------|
D|-777-7--999-9--1010101012/555--------------------------------|
A|----7-7----9-9---------------5-------------------------------|
E|------------------------------3/-5555/3333\8888/3333\55555555|


G|--------------------------|
D|7-7-7/5-5-5--5-5/3-3-3\---|
A|---7-----5----5-----3-----|
E|-----------3--------------|x3


G|---------------------------|
D|-555-----------------------|
A|----5-------333-3-55555555-|
E|-----3/1111\---3-3---------|

G|-------------------------|
D|9-9-9--7-7--7-7--5-5\----|
A|---9----7----7----5------|
E|-----5----5----3---------|x5 (fade out)

tabbed By thecool mr_pants_2@hotmail.com