Doors - Light My Fire Chords & Tabs

 

Light My Fire Chords & Tabs

Doors Chords & Tabs

Version: 5 Type: Tab 0 ratings
1 star 2 stars 3 stars 4 stars 5 stars
comments

Light My Fire Tab

   
Author/Artist: The Doors	
Title: Light my fire
Transcribed by: Vladimir Belmont 
Email: urban_chaos54@hotmail.com

Drop-E (E, A, D, G, B, E)
**Well I think this a 100% correct**

         G        D           F                  
E||--------------------|-------------------10---|
B||------8--------7----|------10-----------11---|
G||------7--------7----|------10--------10------|
D||------9--------7----|------10----------------|
A||--------------------|------------------------|
E||--------------------|------------------------|


      D#       G#           A                                 
------6--------------|--------------------|------------------|
------8--------13----|------14------------|------------------|
------8--------13----|------14------------|------------------|
---------------13----|------14------------|------------------|
---------------------|--------------------|------------------|
---------------------|--------------------|------------------|


                                             
--------------0------|-----------2--2-------|
-----------1---------|-------------------2--|
--------2------------|----------------------|
---------------------|--------4-------------|
---------------------|----------------------|
---------------------|----------------------|


                                                                    
----------------0------|--------------2------|--------------0------|
-------------1---------|---------------------|-----------1---------|
--2-------2------------|-----------2---------|--------2------------|
-----4-----------------|--------4------------|---------------------|
-----------------------|---------------------|---------------------|
-----------------------|---------------------|---------------------|


                                              
--------------2-------|---------------0------|
-----------2-------2--|------------1---------|
----------------------|--2------2------------|
--------4-------------|----------------------|
----------------------|----------------------|
----------------------|----------------------|


                                                  
--------------2-------|--------------3-----------|
-----------2-------2--|-----2-----0--3--------2--|
----------------------|--2-----0--------0--2-----|
--------4-------------|--------------------------|
----------------------|--------------------------|
----------------------|--------------------------|


                                                     
--0-----2-----2--3----2--|--------------3-----------|
--2-----3--3-----3-------|--3--------0--3--------2--|
-----2-------------------|-----2--0--------0--2-----|
-------------------------|--------------------------|
-------------------------|--------------------------|
-------------------------|--------------------------|


                     B                              
----0----------2--5--7----|------------3-----------|
--2---------3--------7----|------------3--------3--|
------2--2-----------8----|---------4-----0--------|
---------0-----------9----|------5-----------0-----|
--------------------------|------------------------|
---------------------7----|------------------------|


                                                   
--2------------------0--|----------0-----------0--|
--3--3----------3-------|-----3----------0--3-----|
-------------1----------|--1----------1-----------|
----------2-------------|-------------------------|
------------------------|-------------------------|
------------------------|-------------------------|


                                               
----------------7------|-----------2--2-------|
--0----------1---------|-------------------2--|
-----1----2------------|----------------------|
-----------------------|--------4-------------|
-----------------------|----------------------|
-----------------------|----------------------|


                                                                   
------------0--0------|--------------2------|--------------0------|
----------------------|---------------------|-----------1---------|
--2------2------------|-----------2---------|--------2------------|
----------------------|--------4------------|---------------------|
----------------------|---------------------|---------------------|
----------------------|---------------------|---------------------|


                                                                    
--------------2-------|------------0--------|--------------2-------|
-----------2-------2--|---------------------|-------------------2--|
----------------------|--2------2-----------|-----------2----------|
--------4-------------|---------------------|--------4-------------|
----------------------|---------------------|----------------------|
----------------------|---------------------|----------------------|


                                                      
--------------3-----------|----0----2-----2--3----2--|
-----2-----0--3--------2--|--2------3--3-----3-------|
--2-----0--------0--2-----|------2-------------------|
--------------------------|--------------------------|
--------------------------|--------------------------|
--------------------------|--------------------------|


                                                       
--------------3-----------|----0----------2--5--2--7--|
--3--------0--3--------2--|--2---------3--------4-----|
-----2--0--------0--2-----|------2--2-----------4-----|
--------------------------|---------0-----------------|
--------------------------|---------------------2-----|
--------------------------|---------------------------|


                                                  
------------3-----------|--2------------------0--|
------------3--------3--|--3--3----------3-------|
---------4-----0--------|-------------1----------|
------5-----------0-----|----------2-------------|
------------------------|------------------------|
------------------------|------------------------|


                                      C/A        
----------0-----------0--|-----0------0---------|
-----3----------0--3-----|--0-------------------|
--1----------1-----------|------------12--------|
-------------------------|------------10--------|
-------------------------|------------12--------|
-------------------------|----------------------|


  Bm       C/A     Bm    Bm       C/A          Bm       C/A     Bm  
--7--------0-------7--|--7--------0---------|--7--------0-------7--|
--7----------------7--|--7------------------|--7----------------7--|
--7--------12------7--|--7--------12--------|--7--------12------7--|
--9--------10------9--|--9--------10--------|--9--------10------9--|
-----------12---------|-----------12--------|-----------12---------|
----------------------|---------------------|----------------------|


  Bm       C/A          D/B      C/A         D/B      C/A       
--7--------0---------|--5--------0--------|--5--------0--------|
--7------------------|--7--------8--------|--7--------8--------|
--7--------12--------|--7--------5--------|--7--------5--------|
--9--------10--------|--9--------7--------|--9--------7--------|
-----------12--------|--------------------|--------------------|
---------------------|--------------------|--------------------|


  D/B      C/A         D/B      C/A         D/B     C/A      D/B
--5--------0--------|--5--------0--------|--5-------0--------5-|
--7--------8--------|--7--------8--------|--7-------8--------7-|
--7--------5--------|--7--------5--------|--7-------5--------7-|
--9--------7--------|--9--------7--------|--9-------7--------9-|
--------------------|--------------------|---------------------|
--------------------|--------------------|---------------------|

[ Tab from: http://www.guitartabs.cc/tabs/d/doors/light_my_fire_tab_ver_5.html ]
         C/A      D/B         C/A      D/B         C/A      D/B
---------0--------5-|---------0--------5-|---------0--------5-|
---------8--------7-|---------8--------7-|---------8--------7-|
---------5--------7-|---------5--------7-|---------5--------7-|
---------7--------9-|---------7--------9-|---------7--------9-|
--------------------|--------------------|--------------------|
--------------------|--------------------|--------------------|


         C/A      D/B      G        D            F         A#     
---------0--------5-|------3----------2---|----------------10----|
---------8--------7-|------3--------3-----|------10--------11----|
---------5--------7-|------4--------2-----|------10--------10----|
---------7--------9-|---------------------|------10--------------|
--------------------|---------------------|----------------------|
--------------------|---------------------|----------------------|


      D#        G#           A                                 
----------------------|--------------------|------------------|
------11--------13----|------14------------|------------------|
------12--------13----|------14------------|------------------|
------13--------13----|------14------------|------------------|
----------------------|--------------------|------------------|
----------------------|--------------------|------------------|


                                              
-----------5--7----5--|-----------2--2-------|
----------------------|-------------------2--|
--------2-------------|----------------------|
----------------------|--------4-------------|
----------------------|----------------------|
----------------------|----------------------|


                                               
----------------0------|--------------2-------|
-------------1---------|-------------------2--|
--2-------2------------|-----------2----------|
-----4-----------------|--------4-------------|
-----------------------|----------------------|
-----------------------|----------------------|


                                                                    
-----------5--7------|--------------2-------|---------------0------|
---------------------|-----------2-------2--|------------1---------|
--------2------------|----------------------|--2------2------------|
---------------------|--------4-------------|----------------------|
---------------------|----------------------|----------------------|
---------------------|----------------------|----------------------|


                                                  
--------------2-------|--------------3-----------|
-----------2-------2--|-----2-----0--3--------2--|
----------------------|--2-----0--------0--2-----|
--------4-------------|--------------------------|
----------------------|--------------------------|
----------------------|--------------------------|


                                                     
--0-----2-----2--3----2--|--------------3-----------|
--2-----3--3-----3-------|--3--------0--3--------2--|
-----2-------------------|-----2--0--------0--2-----|
-------------------------|--------------------------|
-------------------------|--------------------------|
-------------------------|--------------------------|


                                                    
--0-----------2--5--2--7--|------------3-----------|
--2--------3--------4-----|------------3--------3--|
-----2--2-----------4-----|---------4-----0--------|
--------0-----------------|------5-----------0-----|
--------------------2-----|------------------------|
--------------------------|------------------------|


                                                   
--2------------------0--|----------0-----------0--|
--3--3----------3-------|-----3----------0--3-----|
-------------1----------|--1----------1-----------|
----------2-------------|-------------------------|
------------------------|-------------------------|
------------------------|-------------------------|


            Am                   F#m                  Am         
------------0------0--|--------------------|----------0------0--|
--0---------1------1--|----------2------2--|----------1------1--|
-----1------2------2--|----------2------2--|----------2------2--|
----------------------|----------4------4--|--------------------|
----------------------|--------------------|--------------------|
----------------------|--------------------|--------------------|


          F#m                  Am                   F#m        
--------------------|----------0------0--|--------------------|
----------2------2--|----------1------1--|----------2------2--|
----------2------2--|----------2------2--|----------2------2--|
----------4------4--|--------------------|----------4------4--|
--------------------|--------------------|--------------------|
--------------------|--------------------|--------------------|


          Am                   F#m                                 
----------0------0--|--------------------|------------3-----------|
----------1------1--|----------2------2--|---------0--3--------2--|
----------2------2--|----------2------2--|------0--------0--2-----|
--------------------|----------4------4--|------------------------|
--------------------|--------------------|------------------------|
--------------------|--------------------|------------------------|


                                                     
--0-----2-----2--3----2--|--------------3-----------|
--2-----3--3-----3-------|--3--------0--3--------2--|
-----2-------------------|-----2--0--------0--2-----|
-------------------------|--------------------------|
-------------------------|--------------------------|
-------------------------|--------------------------|


                                                      
----0----2-----2--3----2--|--------------1--------0--|
--2------3--3-----3-------|--3-----------1-----1-----|
------2-------------------|-----2-----2--------------|
--------------------------|--------3--------3--------|
--------------------------|--------------------------|
--------------------------|--------------------------|


                                                      
--0-3-0--2-----2--3----2--|--------------1--------0--|
---------3--3-----3-------|--3-----------1-----1-----|
--------------------------|-----2-----2--------------|
--------------------------|--------3--------3--------|
--------------------------|--------------------------|
--------------------------|--------------------------|


                                                      
--0-3-0--2-----2--3----2--|--------------1--------0--|
---------3--3-----3-------|--3-----------1-----1-----|
--------------------------|-----2-----2--------------|
--------------------------|--------3--------3--------|
--------------------------|--------------------------|
--------------------------|--------------------------|


                                                      
--0-3-0--2-----2--3----2--|--------------1--------0--|
---------3--3-----3-------|--3-----------1-----1-----|
--------------------------|-----2-----2--------------|
--------------------------|--------3--------3--------|
--------------------------|--------------------------|
--------------------------|--------------------------|


                                            G        D          
--0-3-0--2------------|------------------|--3----------2-------|
---------3------------|------------------|--3--------3---------|
---------2------------|------------------|--4--------2---------|
----------------------|------------------|---------------------|
----------------------|------------------|---------------------|
----------------------|------------------|---------------------|


  F         A#             D#        G#         
---------------10-------|----------------------|
--10--------11----------|--11--------13--------|
--10--------10----------|--12--------13--------|
--10--------------------|--13--------13--------|
------------------------|----------------------|
------------------------|----------------------|


  A                                                        
--------------------|------------------|------------------|
--14----------------|------------------|------------------|
--14----------------|------------------|------------------|
--14----------------|------------------|------------------|
--------------------|------------------|------------------|
--------------------|------------------|------------------|

Bueno Esta tab es la mas corecta de todas a si que se chingan
Comments