Doors - Light My Fire Chords & Tabs

 

Light My Fire Chords & Tabs

Doors Chords & Tabs

Version: 1 Type: Tab 1 rating
1 star 2 stars 3 stars 4 stars 5 stars
comments

Light My Fire Tab

                                Light my fire         The Doors                   


Submitted by: guitarfreak111
tap5150tap@hotmail.com


                                                                      
Organ arr. for Guitar

                                        
E||------------------------------------|
B||----------------15--13--------------|
G||--16--12-14-16----------16--14--12--|
D||------------------------------------|
A||------------------------------------|
E||------------------------------------|


                                         
----------------13----------------------|
------------13------15-13---------------|
--14-----14---------------15-12-13--12--|
------15--------------------------------|
----------------------------------------|
----------------------------------------|


                                                                          
----------------------------------------|--------------------------------|
----------------13----------------------|--10--10------10-----10---------|
--13--12-13-15------15-13-12------------|------------------9----------9--|
-----------------------------15-13--15--|----------11-------------11-----|
----------------------------------------|--------------------------------|
----------------------------------------|--------------------------------|


                                                                         
--------------------------------|
--10--10------10---------10-----|
----------------------9------9--|
----------11------11------------|
--------------------------------|
--------------------------------|


Re-intro (organ)
                                                                              
------------------------------------|----------------13----------------------|
----------------15--13--------------|------------13------15-13---------------|
--16--12-14-16----------16--14--12--|--14-----14---------------15-12-13--12--|
------------------------------------|------15--------------------------------|
------------------------------------|----------------------------------------|
------------------------------------|----------------------------------------|


                                                                          
----------------------------------------|--------------------------------|
----------------13----------------------|--10--10------10-----10---------|
--13--12-13-15------15-13-12------------|------------------9----------9--|
-----------------------------15-13--15--|----------11-------------11-----|
----------------------------------------|--------------------------------|
----------------------------------------|--------------------------------|


                                                                       
--------------------------------|------------------|------------------|
--10--10------10---------10-----|------------------|------------------|
----------------------9------9--|------------------|------------------|
----------11------11------------|------------------|------------------|
--------------------------------|------------------|------------------|
--------------------------------|------------------|------------------|

Organ Solo

                                                                         
-----------------------|-----------------------|------------------------|
-------5----------7----|-------5-------7-------|-------5--------7-------|
--5----5----------7----|-------5-------7-------|-------5--------7-------|
--5----5----------7----|-------5-------7-------|-------5--------7-------|
-----------------------|-----------------------|------------------------|
--5-------5--7---------|--5---------7-----7----|--5-------5--7-----7----|


                                                                          
------------------------|-----------------------||-----------------------|
-------5--------7-------|-------5--------7------||--------5---------7----|
-------5--------7-------|-------5--------7------||*-------5---------7----|
-------5--------7-------|-------5--------7------||*-------5---------7----|
------------------------|-----------------------||-----------------------|
--5-------5--7-----7----|--5-------5--7---------||---5---------7---------|


                                                                    14x
----------------------|----------------------|-----------------------||
-------5/---7---------|-------5/---7---------|-------5/---7----------||
-------5/---7---------|-------5/---7---------|-------5/---7---------*||
-------5/---7---------|-------5/---7---------|-------5/---7---------*||
----------------------|----------------------|-----------------------||
--5--------------7/---|--5--------------7/---|--5--------------7/----||


                                                                   
----------------------|----------------------|--------------------|--------------------|
---------5/-7---------|-------5/---7---------|--------------------|--------------------|
---------5/-7---------|-------5/---7---------|--------------------|--------------------|
---------5/-7---------|-------5/---7---------|--------------------|--------------------|
----------------------|----------------------|--------------------|--------------------|
--5----------------7/-|--5--------------7/---|--5/-------7/-------|--5/-------7--------|


Outro
                                                                       
|------------------------------------|
|----------------15--13--------------|
|--16--12-14-16----------16--14--12--|
|------------------------------------|
|------------------------------------|
|------------------------------------|


                                                                              
----------------13----------------------|------------------------------------|
------------13------15-13---------------|------11-13-11----------------------|
--14-----14---------------15-12-13--12--|--13------------13--12--10------10--|
------15--------------------------------|----------------------------13------|
----------------------------------------|------------------------------------|
----------------------------------------|------------------------------------|


                                                    
--------------------||
--10----------------||
--9-----------------||
--11----------------||
--------------------||
--------------------||






Guitar
                                                                                
E||--3----------2---------|-----1--------6----------|----11-----------4--------|
B||--3----3-----3----3----|--------1-----------6----|--------------------4-----|
G||--4-------4--2----2----|--2--------7-----7-------|--------------------------|
D||--5----------0---------|-------------------------|--------13----6--------6/-|
A||-----------------------|-------------------------|--------------------------|
E||-----------------------|-------------------------|--------------------------|


                                                       Verses                         
-------5--5--5--5--5--5--|--5--5--5--5--5--5--5--5--||---------5--7------------|
-------5--5--5--5--5--5--|--5--5--5--5--5--5--5--5--||-------5---------5-------|
-------6--6--6--6--6--6--|--6--6--6--6--6--6--6--6--||*----5--------------5----|
--7----7--7--7--7--7--7--|--7--7--7--7--7--7--7--7--||*------------------------|
-------------------------|--------------------------||-------------------------|
-------------------------|--------------------------||-------------------------|


                                                                             
-------2-----------------|--------0--------------|-----------2--------------|
----------2-----2--------|--------------------0--|--2-----------------2-----|
-------------2--------2--|-----2---------2-------|--------2--------2--------|
--4----------------4-----|--2--------------------|-----4--------4--------4--|
-------------------------|-----------------------|--------------------------|
-------------------------|-----------------------|--------------------------|


                                                                             
-----------7-----------|-----------2-------------|--------0-----------------|
--------5-------0------|--2-------------2--------|-----------------0-----2--|
-----------------------|--------2-------------2--|-----2--------2-----------|
-----7-----------------|-----4-------------4-----|-----------2--------2-----|
--0--------------------|-------------------------|--0-----------------------|
-----------------------|-------------------------|--------------------------|


                          Chorus                                                    
----------2--------------|--------3--------5-------|-------------------------|
----------------2--------|-----------3-------------|--7--7--7--8-------------|
-------2--------------2--|-----4-------------------|--7--7--7-------7--------|
----4--------4-----4-----|--5-----------------7----|--7--7--7----------7--8/-|
-------------------------|-------------------------|--5----------------------|
-------------------------|--------------5----------|-------------------------|


                                                      
---------------------------|-------------7-----------|
--------8---------10-------|--7----------------7-----|
-----7------------------0--|--7----7-----------------|
--9--------9/-11-----------|--7-------------9--------|
---------------------------|--5-------9-----------5--|
---------------------------|-------------------------|


                                                      
-----3--------2--2--2-----|-----0--------0-----------|
--------------3--3--3-----|-----------------------3--|
--4-----------2--2--2-----|-----------1--------1-----|
--------------0--0--0-----|--------2--------2--------|
--------5--0--0--0--0--0--|--2-----------------------|
-----------------------0--|--0-----------------------|


                                                                            
-----0-----0--------------||-----0--------0--------0--|--------------------|
--------------------------||--------------------------|--------------------|
--------1--------3-------*||--1--------1--------1-----|---------------1----|
-----------------1-------*||--------2--------2--------|----------2---------|
--2-----------2-----2-----||--------------------------|--------------------|
--0-----------0-----0-----||--------------------------|--------------------|



Guitar Solo
                                                                     
-----------------5--|--7------8--7-8-7-5----5--|
------------8-------|--------------------8-----|
--------------------|--------------------------|
--------------------|--------------------------|
--------------------|--------------------------|
--------------------|--------------------------|


                                                                          
-----------7-8-7-5----5--|--------0----------------|------------5-----5--|
--------8----------8-----|-----------7-8-7-5----5--|---------------8-----|
-------------------------|-------------------7--5--|---------------------|
-------------------------|-------------------------|---------------------|
-------------------------|-------------------------|---------------------|
-------------------------|-------------------------|---------------------|


                                                                      
--7----------8----7--|----8-7-5--------------|-----------------------|
---------------------|----------8------------|--7-8-7-5--------------|
---------------------|-----------------------|----------7------------|
---------------------|-----------------------|-----------------------|
---------------------|-----------------------|-----------------------|
---------------------|-----------------------|-----------------------|


                                                       
-----------------------|----------------5-6-----------|
-----------------------|----------5-6-7-----7---------|
--7-8-7-5--------------|----5-6-7---------------------|
----------7------------|------------------------------|
-----------------------|------------------------------|
-----------------------|------------------------------|


                                                                
----------------5-6-----------|--------5---5--7--8-5----5------|
----------5-6-7-----7---------|----------7-----------7-----7-8-|
----5-6-7---------------------|--5-6-7-------------------------|
------------------------------|--------------------------------|
------------------------------|--------------------------------|
------------------------------|--------------------------------|


                                                                          
--------------------------5--|----------------5-----|--------------------|
-----5-----------------------|----7-----------------|--------------------|
--7-----7--8-7-5----5--7-----|-------------7--------|----5--7------------|
-----------------7-----------|-------------------7--|--------------------|
-----------------------------|----------------------|--------------------|
-----------------------------|----------------------|--------------------|


                                                                        
----8--5--8-5---8/-----|----8--5--8-5---8------|----8--5--8-5---8/-----|
----8--5--8-5---8/-----|----8--5--8-5---8------|----8--5--8-5---8/-----|
-----------------------|-----------------------|-----------------------|
-----------------------|-----------------------|-----------------------|
-----------------------|-----------------------|-----------------------|
-----------------------|-----------------------|-----------------------|


                                                                           
----8--5--8-5---5/-3--3--|--3/-5--5/-3--3/-5--5-----|--5----------0----1--|
----8--5--8-5---5/-3--3--|--3/-5--5/-3--3/-5-----5--|---------------------|
-------------------------|--------------------------|---------------------|
-------------------------|--------------------------|---------------------|
-------------------------|--------------------------|---------------------|
-------------------------|--------------------------|---------------------|


                                                       
----3----1-3-1-0-------------|------------------------|
------------------3--1-3-1-0-|------------------------|
-----------------------------|--2----------4-2-0------|
-----------------------------|-------------------2----|
-----------------------------|------------------------|
-----------------------------|------------------------|


                                                                              
--------------------------------|-------------5--7----|----5-----------------|
--------------------------------|---------------------|-------7------5-------|
--2-4-2-0----2-4-2-0----2-4-2-0-|---------------------|-------------------7--|
----------2----------2----------|--2------------------|----------------------|
--------------------------------|---------------------|----------------------|
--------------------------------|---------------------|----------------------|


                                                                       
----------------5----5/7-|----8------10------12/-|----------------12--|
----------5--7-----------|-----------------------|--------------------|
----5--7-----------------|-----------------------|--------------------|
-------------------------|-----------------------|--------------------|
-------------------------|-----------------------|--------------------|
-------------------------|-----------------------|--------------------|

[ Tab from: http://www.guitartabs.cc/tabs/d/doors/light_my_fire_tab.html ]
                                                                     
----13----15----13-15-13-12------|----------------------------------|
-----------------------------15--|--15--13----15-13-12--------------|
---------------------------------|----------------------14--12--14--|
---------------------------------|----------------------------------|
---------------------------------|----------------------------------|
---------------------------------|----------------------------------|


                                                                             
-----------------------------------------|--12--13----15--13-15-13-12-------|
--12-13-15-13-12-------13-15-13-12-------|----------------------------15----|
-----------------14----------------14----|----------------------------------|
-----------------------------------------|----------------------------------|
-----------------------------------------|----------------------------------|
-----------------------------------------|----------------------------------|


                                                                    
----------------------------------|--12--13----15----15-13-12------|
--12--13----15--13-12----12-------|----------------------------15--|
----------------------12----14----|--------------------------------|
----------------------------------|--------------------------------|
----------------------------------|--------------------------------|
----------------------------------|--------------------------------|


                                                                
----------------------------12----|--17/16/17----17/-----16----|
--13-15-13-12---------------------|----------------------------|
--------------14--12--14----------|----------------------------|
----------------------------------|----------------------------|
----------------------------------|----------------------------|
----------------------------------|----------------------------|


                                                                      
--17------17/---------|----17-19-17-19-17----------17----------17----|
----------------------|-------------------19-17-19----------------19-|
----------------------|-------------------------------19-17-19-------|
----------------------|----------------------------------------------|
----------------------|----------------------------------------------|
----------------------|----------------------------------------------|


                                         
--------17-19-21-17-----17------17------|
--17-19-------------19------------------|
----------------------------17------19--|
----------------------------------------|
----------------------------------------|
----------------------------------------|


                                                                                
--------------17-19-17----------17----17--|--------17------17-19-21------------|
--------17-19----------19-17-19-----------|------------17-------------19-19r---|
--17-19-----------------------------------|--17-19-----------------------------|
------------------------------------------|------------------------------------|
------------------------------------------|------------------------------------|
------------------------------------------|------------------------------------|


                                                                   
--------17------------|----5--------------5--|-----------------5--|
------------19/-------|---------7------------|--------------8-----|
----------------------|-----------7r---------|--------------------|
----------------------|----------------------|--------------------|
----------------------|----------------------|--------------------|
----------------------|----------------------|--------------------|


                                                                               
----7----8--7-8-7-5----5--|-------------5----7--|-----8-7-5-------------------|
--------------------8--5--|--------8------------|--------------7--8-7-5----5--|
--------------------------|---------------------|-----------------------7--5--|
--------------------------|---------------------|-----------------------------|
--------------------------|---------------------|-----------------------------|
--------------------------|---------------------|-----------------------------|


                                                                             
------------5-----5--|--7------8----7-8-7-------|----------5----------------|
---------------8-----|--------------------8--8--|-----8-8-----7-8-7-5----5--|
---------------------|--------------------------|---------------------7--5--|
---------------------|--------------------------|---------------------------|
---------------------|--------------------------|---------------------------|
---------------------|--------------------------|---------------------------|


                                                                     
--------5----------------|------------5-----5--|----7--------8------|
-----------7-8-7-5----5--|---------------8-----|--------------------|
-------------------7--5--|---------------------|--------------------|
-------------------------|---------------------|--------------------|
-------------------------|---------------------|--------------------|
-------------------------|---------------------|--------------------|


                                                                         
--7-8-7-5--------5------|----------------5------|----------------5------|
----------7-------------|--8--7-5---------------|--8--7-5---------------|
------------------------|---------7-------------|---------7-------------|
------------------------|-----------------------|-----------------------|
------------------------|-----------------------|-----------------------|
------------------------|-----------------------|-----------------------|


                                                             
----------------------5--7--|------5---------5---------5----|
--7--8-7-5------5--7--------|-----------8---------7---------|
-----------7----5-----------|-------------------------------|
----------------------------|-------------------------------|
----------------------------|-------------------------------|
----------------------------|-------------------------------|


                                                           
------------7--------------5----|-------5-----------------|
-------5----7----5----8---------|--7----------------------|
--7---------7-------------------|------------7------------|
--------------------------------|-------------------------|
--------------------------------|-------------------------|
--------------------------------|-------------------------|


                                                          
----------------------------|----------------------------|
----------------------------|----------------------------|
--7b---7b---7b---7r---5-----|--7b---7b---7b---7r---5-----|
-------------------------7--|-------------------------7--|
----------------------------|----------------------------|
----------------------------|----------------------------|


                                                         
----------------------------|---------------------------|
----------------------------|--8b---8b---8b---8r---5----|
--7b---7b---7b---7r---5-----|---------------------------|
-------------------------0--|---------------------------|
----------------------------|---------------------------|
----------------------------|---------------------------|


                                                         
---------------------------|----------------------------|
--8b---8b---8b---8r---5----|----------------------------|
---------------------------|--7b---7b---7b---7r---5-----|
---------------------------|-------------------------7--|
---------------------------|----------------------------|
---------------------------|----------------------------|


                                                                  
--------------------------------|--------------------------------|
------------5----7----5---------|--------------------------------|
--5----7-------------------7----|--7----5----7----5----7----5----|
--------------------------------|--------------------------------|
--------------------------------|--------------------------------|
--------------------------------|--------------------------------|


                                                                   
---------------------------5----|--8----7----5--------------------|
-------5----7----8----7---------|-----------------8----7----5/-0--|
--7-----------------------------|---------------------------------|
--------------------------------|---------------------------------|
--------------------------------|---------------------------------|
--------------------------------|---------------------------------|


                                                                             
--3----3--------2-------|--1----------6----------|------11------------4-----|
-------3-----------3----|-------1----------6-----|---------------4----------|
-------------2----------|------------------------|--12--------5-------------|
----------0-------------|----------3/---------8/-|-----------------------6/-|
------------------------|----------3/------------|--------------------------|
------------------------|------------------------|--------------------------|


                                                Organ/Guitar                   
-----5------------------|--------5-------------|--------5--7------------|
---------------5-----5--|--------5----------5--|------5---------5-------|
----------6-------6-----|-----6--6-------------|----5--------------5----|
--7---------------------|--------7-------------|------------------------|
------------------------|--7-------------------|------------------------|
------------------------|----------------------|------------------------|


                                                                             
-------2-----------------|--------0--------------|-----------2--------------|
----------2-----2--------|--------------------0--|--2-----------------2-----|
-------------2--------2--|-----2---------2-------|--------2--------2--------|
--4----------------4-----|--2--------------------|-----4--------4--------4--|
-------------------------|-----------------------|--------------------------|
-------------------------|-----------------------|--------------------------|


                                                                             
-----------7-----------|-----------2-------------|--------0-----------------|
--------5-------0------|--2-------------2--------|-----------------0-----2--|
-----------------------|--------2-------------2--|-----2--------2-----------|
-----7-----------------|-----4-------------4-----|-----------2--------2-----|
--0--------------------|-------------------------|--0-----------------------|
-----------------------|-------------------------|--------------------------|


                                                                              
----------2--------------|--------3--------5-------|-------------------------|
----------------2--------|-----------3-------------|--7--7--7--8-------------|
-------2--------------2--|-----4-------------------|--7--7--7-------7--------|
----4--------4-----4-----|--5-----------------7----|--7--7--7----------7--8/-|
-------------------------|-------------------------|--5----------------------|
-------------------------|--------------5----------|-------------------------|


                                                      
---------------------------|-------------7-----------|
--------8---------10-------|--7----------------7-----|
-----7------------------0--|--7----7-----------------|
--9--------9/-11-----------|--7-------------9--------|
---------------------------|--5-------9-----------5--|
---------------------------|-------------------------|


                                                                            
-----3--------2--2--2-----|------------------------|----0------------------|
--------------3--3--3-----|------------------------|-----------------------|
--4-----------2--2--2-----|-----1-------1-------1--|---------------1-------|
--------------0--0--0-----|------------------------|------------2----------|
--------5--0--0--0--0--0--|--2-----2---------2-----|---------2--------2----|
-----------------------0--|--0---------------------|-----------------------|


  Verse 4                                                                 
--------------------|-----------------------|---------------------|
------5------5------|-------2--------2------|------5-------5------|
------5------5------|-------2--------2------|------5-------5------|
------5------5------|-------4--------4------|------5-------5------|
--------------------|-----------------------|---------------------|
--------------------|----0--2--0--2---------|-----------5---------|


                                                                      
----------------------|-----------------------|----------------------|
------2-------2-------|------5-----5--5-------|------2-----2--2------|
------2-------2-------|------5-----5--5-------|------2-----2--2------|
------4-------4-------|------5-----5--5-------|------4-----4--4------|
----------------------|-----------------------|----------------------|
-----------2-----2----|---------5--------5----|------2--0--2--2------|


                                                Chorus                        
-----------------------|----------------------|--------3-------5-------|
------5--------5----5--|------2--------2------|---------------------0--|
------5--------5----5--|------2--------2------|-----4---------------0--|
------5--------5----5--|------4--------4------|--5----------7----------|
-----------------------|----------------------|------------------------|
---------0--5----------|---------0--2---------|------------------------|


                                                                           
--2--2--2--3----2--2-----|--3----3--3--5----5-----|--2----2---------------|
--3--3--3--3----3--3--0--|--3----3--3--5----5--0--|--3----3---------------|
--2--2--2--2----2--2--0--|--4----4--4--6----6--0--|--2----2---------------|
--0--0--0--0----0--0-----|--5----5--5--7----7-----|--0----0------0--0--0--|
-------------------------|--5----5--5--7----7-----|-----------------------|
-------------------------|------------------------|-----------------------|


                                                     2x                        
|---1----1--0--0----0--0--|--2-----2--3----2--2------||--1-----1----0----0----|
|---1----1--0--1----1--0--|--3-----3--3----3--3--0---||--1-----1----1----1----|
|*--2----2--0--0----0--0--|--2--2--2--2----2--2--0--*||--2--2--2----0----0----|
|*--3----3--0--2----2--0--|--0--0--0--0----0--0--0--*||--3-----3----2----2----|
|---3----3--3--3----3-----|----------------------0---||--3-----3----3----3----|
|-------------------------|--------------------------||-----------------------|


                                    Outro                       
--2----------------|--------------|--3----------2------0--|
--3----------------|--------------|--3----------3------0--|
--2----------------|--------------|--4----4--4--2------0--|
--0----------------|--------------|--5----5--5--0---------|
-------------------|--------------|--5--------------------|
-------------------|--------------|-----------------------|


                                                                     
--1----1/---6----6/---|--11----11/---4----4/---|--5--------5--------|
--1----1/---6----6/---|--11----11/---4----4/---|--5--------5--------|
--2----2/---7----7/---|--12----12/---5----5/---|--6--------6--------|
--3----3/---8----8/---|--13----13/---6----6/---|--7--------7--------|
--3----3/---8----8/---|--13----13/---6----6/---|--7--------7--------|
----------------------|------------------------|--------------------|


                                        
--5----------------|------------------||
--5----------------|------------------||
--6----------------|------------------||
--7----------------|------------------||
--7----------------|------------------||
-------------------|------------------||


Comments