Doors - Light My Fire Chords & Tabs

 

Light My Fire Chords & Tabs

Doors Chords & Tabs

Version: 1 Type: Chords 0 ratings
1 star 2 stars 3 stars 4 stars 5 stars
comments

Light My Fire Chords

   
he Doors - Light my fire
=========================
tabed by: Robert M
I love you des



[ Tab from: http://www.guitartabs.cc/tabs/d/doors/light_my_fire_crd.html ]
E||------------------------------------|----------------13----------------------|
B||--12--------12--15--13--12----------|------------13------15p13---------------|
G||------12-14-----------------14--12--|--14-----14---------------15-12h13p-12--|
D||------------------------------------|------15--------------------------------|
A||------------------------------------|----------------------------------------|
E||------------------------------------|----------------------------------------|
                                                                                                               
----------------------------------------|------------------12----------12--|----------------------12------12--|
----------------13----------------------|----------14--------------14------|----------14------14--------------|
--13--12h13-15------15-13-12------------|--14--14------14------14----------|--14--14------14----------14------|
-----------------------------15-13--15--|----------------------------------|----------------------------------|
----------------------------------------|----------------------------------|----------------------------------|
----------------------------------------|----------------------------------|----------------------------------|


[Solo]
Am Bm Am Bm

[Repeat intro]
[Verse]
[Chorus]


3x0033   G
xx0232   D
133211   F
x13331   A#
x46664   C#
466544   G#
x02220   A
x02210   Am
244222   F#m
xx0233   Dsus4
x24442   B
022100   E
020100   E7
     
Comments