Doors - Fiest Of Friends Chords & Tabs

 

Fiest Of Friends Chords & Tabs

Doors Chords & Tabs

Version: 1 Type: Tab 0 ratings
1 star 2 stars 3 stars 4 stars 5 stars
comments

Fiest Of Friends Tab

-------------------------------------------------------------------------------
			     FIEST OF FRIENDS
-------------------------------------------------------------------------------
Tabbed by: NICK ITALIAN STALLION
Email:XHILOVERX@AOL.COM

Tuning:STANDARD    IVE LOOKED FOR THIS SONG ALL OVER AND NOBODYS TABBED IT SO
HERES MY STAB AT IT THE FIRST PART IS ACTUALLY THE ORGAN PART CANT FIGUER OUT
THE GUITAR BUT STILL FUN TO PLAY THEN THE GUITAR COMES IN GREAT PART TO PLAY

e|---------------------------------------------------------------------------|
B|---------------------------------------------------------------------------|
G|---------------------------------------------------------------------------|
D|---------------------------------------------------------------------------|
A|-1/3----------------------------------------------3---------------------3--|
E|---------3---5----6-------------------5----6------------------5----6-------|


e|---------------------------------------------------------------------------|
B|---------------------------------------------------------------------------|
G|---------------------------------------------------------------------------|
D|---------------------------------------------------------------------------|
A|---------------------------------------------------------------------------|
E|--------3-----5-----6------------2-----3---5---------------3--2---3--------|


e|------15^--------------------------------------------------------------------|
B|-------------------17---15---------------13-------15---15^--- 13-------------|
G|-----------------------------17--15--15-----15---------------------15---14---|
D|-----------------------------------------------------------------------------|
A|-----------------------------------------------------------------------------|
E|-----------------------------------------------------------------------------|

e|---------------------------------------------------------------------------|
B|---------------------------------------------------------------------------|
G|---------------------------------------------------------------------------|
D|---------------------------------------------------------------------------|
A|--------------3------------------------------------------------------------|
E|----5----6-----------------3----5---6-----------2---3----5--------3--2---3-|


e|---10---------8----------------------------------------11-----------10---8---|
B|------------------11---10-------8-------7-8-7--------------------------------|
G|-----------------------------------------------------------------------------|
D|-----------------------------------------------------------------------------|
A|-----------------------------------------------------------------------------|
E|-----------------------------------------------------------------------------|
[ Tab from: http://www.guitartabs.cc/tabs/d/doors/fiest_of_friends_tab.html ]
e|------------------------------------------15-------13---15-----11----13------|
B|--11----10-------10-------8-10-8---------------------------------------------|
G|-----------------------------------------------------------------------------|
D|-----------------------------------------------------------------------------|
A|-----------------------------------------------------------------------------|
E|-----------------------------------------------------------------------------|

e|--10---11--------13------11--13-----10--11-----8----10---10/11-------10-11---|
B|-----------------------------------------------------------------------------|
G|-----------------------------------------------------------------------------|
D|-----------------------------------------------------------------------------|
A|-----------------------------------------------------------------------------|
E|-----------------------------------------------------------------------------|

e|-8--10------6---8------------------------------10---------11-----------------|
B|----------------------10--11----13---11--10----------------------------------|
G|-----------------------------------------------------------------------------|
D|-----------------------------------------------------------------------------|
A|-----------------------------------------------------------------------------|
E|-----------------------------------------------------------------------------|
    SLIDE FINGER BACK AND FOURTH
e|-10\11/10/11\10/11\10/11\10/11------15---17--18---17--15--14--15---13--------|
B|-----------------------------------------------------------------------------|
G|-----------------------------------------------------------------------------|
D|-----------------------------------------------------------------------------|
A|-----------------------------------------------------------------------------|
E|-----------------------------------------------------------------------------|

e|--13---15----17----15---13----12------------------15--------------------15---|
B|-----------------------------------13----16---------15-------12-----15-------|
G|-----------------------------------------------------------------------------|
D|-----------------------------------------------------------------------------|
A|-----------------------------------------------------------------------------|
E|-----------------------------------------------------------------------------|

e|-----------------------------------------------------------------------------|
B|--13-----13---15--16---15---13----11----11---13---15---13---11---10----------|
G|-----------------------------------------------------------------------------|
D|-----------------------------------------------------------------------------|
A|-----------------------------------------------------------------------------|
E|-----------------------------------------------------------------------------|

e|----------------------------------------------------------------------------|
B|--10--11----13---------11----------10------------8--------------------------|
G|----------------------------------------------------------------------------|
D|----------------------------------------------------------------------------|
A|----------------------------------------------------------------------------|
E|----------------------------------------------------------------------------|
PS  GERMANS R HORNY

 /  slide up
 \  slide down
 ~  vibrato
 ^  BEND

=============================================================

|
Comments