Doors - Break On Through Chords & Tabs

 

Break On Through Chords & Tabs

Doors Chords & Tabs

Version: 5 Type: Tab 0 ratings
1 star 2 stars 3 stars 4 stars 5 stars
comments

Break On Through Tab

The doors
break on through

E---------------------------------15/5----------------15/5-|
-------------------7-0-5-0-7-7-0-5-----7-0-5-0-7-7-0-5-----|    X2
-----------------------------------------------------------|
-----------------------------------------------------------|
-----------------------------------------------------------|
e----------------------------------------------------------|


E------------  -0h3------------------|
---5-5--5-5--  ---0h2----------------|
---7-7--7-7--  -----0h2---------2----|   X3
---7-7--7-7--  --------0h2-0h2-0-----|
-------------  ----------------------|
e------------  ----------------------|

[ Tab from: http://www.guitartabs.cc/tabs/d/doors/break_on_through_tab_ver_5.html ]
E---------------------------------15/5----------------15/5-|
-------------------7-0-5-0-7-7-0-5-----7-0-5-0-7-7-0-5-----|    X2
-----------------------------------------------------------|
-----------------------------------------------------------|
-----------------------------------------------------------|
e----------------------------------------------------------|


E------------  -0h3------------------|
---5-5--5-5--  ---0h2----------------|
---7-7--7-7--  -----0h2---------2----|   X3
---7-7--7-7--  --------0h2-0h2-0-----|
-------------  ----------------------|
e------------  ----------------------|

Well thats it for the intro!
It's my first tab, so i hope its alright for you all :)
Comments