Doors - Break On Through Chords & Tabs

 

Break On Through Chords & Tabs

Doors Chords & Tabs

Version: 1 Type: Tab 0 ratings
1 star 2 stars 3 stars 4 stars 5 stars
comments

Break On Through Tab

#----------------------------------PLEASE NOTE---------------------------------#
#This file is the author's own work and represents their interpretation of the #
#song. You may only use this file for private study, scholarship, or research. #
#------------------------------------------------------------------------------#

Doors 

Break On Through (to the Other Side)
 
by Brian S.


bass (w/ pic) intro :
g--------------------------------------------|
d--------------------------------------------|
a--7-----5-----5-------7---------------------|
e-----7-----7-----7-7-----7~-----------------|
[ Tab from: http://www.guitartabs.cc/tabs/d/doors/break_on_through_tab.html ]
guitar
e---------------------------------------------|
b---------------------------------------------|
g----9---7-------9--9----7--------------------|
d----9---7-------9--9----7--------------------|
a----7---5---5---7--7----5--------------------|
e----------------------7----------------------|

Chorus :
e---------------------------------------------|
b---------------------------------------------|
g--7-----7--------7------7--------------------|
d--7-----7--------7------7--------------------|
a--5-----5--------5------5--------------------|
e---------------------------------------------|
  Try to Run     Try To Hide. 

Chorus Lick:
e---------------------------------------------|
b---------------------------------------------|
g-----------------------------------9---------|
d-----------------------------9--7------------|
a--------7--10--7-----7---10------------------|
e-7--10------------10-------------------------|
Comments