Doors - Blue Sunday Chords & Tabs

 

Blue Sunday Chords & Tabs

Doors Chords & Tabs

Version: 1 Type: Bass Tab 0 ratings
1 star 2 stars 3 stars 4 stars 5 stars
comments

Blue Sunday Bass Tab

Blue Sunday - The Doors

  intro riff  verse (x2)
G|--9--7----|---9--7-------9--7---------------------|
D|10-10-8---|-10-10-8108-10-10-810----11-1113-1110--|
A|-------8--|8----------8---------8910--------------|
E|----------|---------------------------------------|
[ Tab from: http://www.guitartabs.cc/tabs/d/doors/blue_sunday_btab.html ]
  "one in the world  now I have found.."
G|--------------------------10--10-10-10-10----10-10-|
D|8-10-11-10--8-10-11-10-10------------------10------|
A|---------------------------------------------------|
E|---------------------------------------------------|

  "my girl awaits for me in 
   tender times"             "my girl is mine"
G|--------------------------|-------------------------|
D|--11-108------------------|-------------------------|
A|---------11-10-8----------|-------------------9-----|
E|10---------------1110-8---|6-8-9-8--6-8-9-8-8---9-8-|


This is all I have or haven't figured out.



Comments