Doobie Brothers - Long Train Running Chords & Tabs

 

Long Train Running Chords & Tabs

Doobie Brothers Chords & Tabs

Version: 1 Type: Tab 3 ratings
1 star 2 stars 3 stars 4 stars 5 stars
comments

Long Train Running Tab

                  Doobie Brothers - Long Train Running                                
                                by digiti

                                                           
E||----------------x-x-|--10-10-10-10-10------10--10-10---|
B||----------------x-x-|--10h11-11-11-11------11--11-10---|
G||----------------x-x-|--10h10-10-10-10------10--10-10---|
D||--------------------|--10-12-12-12-12------12--12-10---|
A||--------------------|----------------------------------|
E||--------------------|----------------------------------|


                                                                      
--10-10-10-10-10------10--10-10---|--10-10-10-10-10------10--10-10---|
--10h11-11-11-11------11--11-10---|--10h11-11-11-11------11--11-10---|
--10h10-10-10-10------10--10-10---|--10h10-10-10-10------10--10-10---|
--10-12-12-12-12------12--12-10---|--10-12-12-12-12------12--12-10---|
----------------------------------|----------------------------------|
----------------------------------|----------------------------------|


                                                             
--10-10-10-10-10------10--10-10---|----------3--1-----------|
--10h11-11-11-11------11--11-10---|-----------------3-------|
--10h10-10-10-10------10--10-10---|--0--2-3---------------0-|
--10-12-12-12-12------12--12-10---|-------------------------|
----------------------------------|-------------------------|
----------------------------------|-------------------------|


                                                                              
----------3--1-----------|----------3--1-----------|----------3--1-----------|
-----------------3-------|-----------------3-------|-----------------3-------|
--0--2-3---------------0-|--0--2-3---------------0-|--0--2-3---------------0-|
-------------------------|-------------------------|-------------------------|
-------------------------|-------------------------|-------------------------|
-------------------------|-------------------------|-------------------------|


                                                                              
----------3--1-----------|----------3--1-----------|----------3--1-----------|
-----------------3-------|-----------------3-------|-----------------3-------|
--0--2-3---------------0-|--0--2-3---------------0-|--0--2-3---------------0-|
-------------------------|-------------------------|-------------------------|
-------------------------|-------------------------|-------------------------|
-------------------------|-------------------------|-------------------------|


                                                                          
----------3--1-----------|-----------------------|-----------------------|
-----------------3-------|--4----3--4----3--4----|--4----3--4----3--4----|
--0--2-3---------------0-|-----------------------|-----------------------|
-------------------------|-----------------------|-----------------------|
-------------------------|-----------------------|-----------------------|
-------------------------|-----------------------|-----------------------|


                                                            
----------3--1-----------|----------3--1-----------|---|---|
-----------------3-------|-----------------3-------|---|---|
--0--2-3---------------0-|--0--2-3---------------0-|---|---|
-------------------------|-------------------------|---|---|
-------------------------|-------------------------|---|---|
-------------------------|-------------------------|---|---|


                                                                              
----------3--1-----------|----------3--1-----------|----------3--1-----------|
-----------------3-------|-----------------3-------|-----------------3-------|
--0--2-3---------------0-|--0--2-3---------------0-|--0--2-3---------------0-|
-------------------------|-------------------------|-------------------------|
-------------------------|-------------------------|-------------------------|
-------------------------|-------------------------|-------------------------|


                                                                              
----------3--1-----------|----------3--1-----------|----------3--1-----------|
-----------------3-------|-----------------3-------|-----------------3-------|
--0--2-3---------------0-|--0--2-3---------------0-|--0--2-3---------------0-|
-------------------------|-------------------------|-------------------------|
-------------------------|-------------------------|-------------------------|
-------------------------|-------------------------|-------------------------|


                                                                          
-----------------------|-----------------------|----------3--1-----------|
-----------------------|-----------------------|-----------------3-------|
--8----7--8----7--8----|--8----7--8----7--8----|--0--2-3---------------0-|
-----------------------|-----------------------|-------------------------|
-----------------------|-----------------------|-------------------------|
-----------------------|-----------------------|-------------------------|

[ Tab from: http://www.guitartabs.cc/tabs/d/doobie_brothers/long_train_running_tab.html ]
                                                            
----------3--1-----------|---|---|----------3--1-----------|
-----------------3-------|---|---|-----------------3-------|
--0--2-3---------------0-|---|---|--0--2-3---------------0-|
-------------------------|---|---|-------------------------|
-------------------------|---|---|-------------------------|
-------------------------|---|---|-------------------------|


                                                                
----------3--1-----------|---|---|---|----------3--1-----------|
-----------------3-------|---|---|---|-----------------3-------|
--0--2-3---------------0-|---|---|---|--0--2-3---------------0-|
-------------------------|---|---|---|-------------------------|
-------------------------|---|---|---|-------------------------|
-------------------------|---|---|---|-------------------------|


                                                                          
-----------------------|-----------------------|----------3--1-----------|
-----------------------|-----------------------|-----------------3-------|
--8----7--8----7--8----|--8----7--8----7--8----|--0--2-3---------------0-|
-----------------------|-----------------------|-------------------------|
-----------------------|-----------------------|-------------------------|
-----------------------|-----------------------|-------------------------|


                                                            
----------3--1-----------|---|---|----------3--1-----------|
-----------------3-------|---|---|-----------------3-------|
--0--2-3---------------0-|---|---|--0--2-3---------------0-|
-------------------------|---|---|-------------------------|
-------------------------|---|---|-------------------------|
-------------------------|---|---|-------------------------|


                                                                              
----------3--1-----------|----------3--1-----------|----------3--1-----------|
-----------------3-------|-----------------3-------|-----------------3-------|
--0--2-3---------------0-|--0--2-3---------------0-|--0--2-3---------------0-|
-------------------------|-------------------------|-------------------------|
-------------------------|-------------------------|-------------------------|
-------------------------|-------------------------|-------------------------|


                                                                            
----------3--1-----------|----------3--1-----------|-----------------------|
-----------------3-------|-----------------3-------|-----------------------|
--0--2-3---------------0-|--0--2-3---------------0-|--8----7--8----7--8----|
-------------------------|-------------------------|-----------------------|
-------------------------|-------------------------|-----------------------|
-------------------------|-------------------------|-----------------------|


                                                                                
-----------------------|----------3--1-----------|----------3--1-----------|---|
-----------------------|-----------------3-------|-----------------3-------|---|
--8----7--8----7--8----|--0--2-3---------------0-|--0--2-3---------------0-|---|
-----------------------|-------------------------|-------------------------|---|
-----------------------|-------------------------|-------------------------|---|
-----------------------|-------------------------|-------------------------|---|


                                                                    
---|----------3--1-----------|----------3--1-----------|---|---|---|
---|-----------------3-------|-----------------3-------|---|---|---|
---|--0--2-3---------------0-|--0--2-3---------------0-|---|---|---|
---|-------------------------|-------------------------|---|---|---|
---|-------------------------|-------------------------|---|---|---|
---|-------------------------|-------------------------|---|---|---|


                                                                          
----------3--1-----------|-----------------------|-----------------------|
-----------------3-------|-----------------------|-----------------------|
--0--2-3---------------0-|--8----7--8----7--8----|--8----7--8----7--8----|
-------------------------|-----------------------|-----------------------|
-------------------------|-----------------------|-----------------------|
-------------------------|-----------------------|-----------------------|


                                                                    
----------3--1-----------|----------3--1-----------|---|---|---|---|
-----------------3-------|-----------------3-------|---|---|---|---|
--0--2-3---------------0-|--0--2-3---------------0-|---|---|---|---|
-------------------------|-------------------------|---|---|---|---|
-------------------------|-------------------------|---|---|---|---|
-------------------------|-------------------------|---|---|---|---|


                                                                      
--10-10-10-10-10------10--10-10---|--10-10-10-10-10------10--10-10---|
--10h11-11-11-11------11--11-10---|--10h11-11-11-11------11--11-10---|
--10h10-10-10-10------10--10-10---|--10h10-10-10-10------10--10-10---|
--10-12-12-12-12------12--12-10---|--10-12-12-12-12------12--12-10---|
----------------------------------|----------------------------------|
----------------------------------|----------------------------------|


                                                                       
--10-10-10-10-10------10--10-10---|--10-10-10-10-10------10--10-10---||
--10h11-11-11-11------11--11-10---|--10h11-11-11-11------11--11-10---||
--10h10-10-10-10------10--10-10---|--10h10-10-10-10------10--10-10---||
--10-12-12-12-12------12--12-10---|--10-12-12-12-12------12--12-10---||
----------------------------------|----------------------------------||
----------------------------------|----------------------------------||
Comments