Doobie Brothers - Listen To The Music Chords & Tabs

 

Listen To The Music Chords & Tabs

Doobie Brothers Chords & Tabs

Version: 2 Type: Tab 1 rating
1 star 2 stars 3 stars 4 stars 5 stars
comments

Listen To The Music Tab

   
This is a repost, I had some tweeking to do, but I am pretty certain that this will get the job done.  
Here is the intro, also played pretty much through the whole song.  
Here is what I refer to in my post as [Riff 1]:

|---4---4-x-4-4-----4-----|4---4-x-4-4---4-4-4-4-4-4|------
|---5---5-x-5-5-----5-----|5---5-x-5-5---5-5-5-5-5-5|------
|---4---4-x-4-4-----4-----|4---4-x-4-4---4-4-4-4-4-4|------
|---4h6-6-x-6-6-----6-----|4h6-6-x-6-6h7-7-7-7-7-6-6|------
|-------------------------|-------------------------|------
|-------------------------|-------------------------|------

This, then, is the [Lead-In]:

|---4---4-x-4-4---4-4--------------------------------------
|---5---5-x-5-5---5-5--------------------------------------
|---4---4-x-4-4---4-4--------------------------------------
|---4h6-6-x-6-6---6-6--------------------------------------
|----------------------------------------------------------
|----------------------------------------------------------


Without further ado the song.

Listen to the Music
The Doobie Brothers


[Riff 1]
Don’t you feel it growin, day by day?
[Riff 1]                    [C#m] 
People getting ready for the news
            [B]          [A] 
Some are happy, some are sad
                         [Riff 1]
Whoa gotta let the music play

[ Tab from: http://www.guitartabs.cc/tabs/d/doobie_brothers/listen_to_the_music_tab_ver_2.html ]
[Riff 1]
What the people need is a way to make ’em smile
[Riff 1]                          [C#m]
It ain’t so hard to do if you know how
            [B]                [A]  
Gotta get a message, get it on through
                             [Lead-In]
Whoa now mamma goin to after while


[C#m]              [A]
Whoa listen to the music
Whoa listen to the music
Whoa listen to the music
        [F#]       [A]   
All the time


Well I know, you know baby everything I say
Meet me in the country for a day
We’ll be happy and we’ll dance
Whoa gonna dance the blues away


If I’m feelin good to you, and you’re feeling good to me
There ain’t nothing we can’t do or say
Feelin good, feelin fine
Whoa baby let the music play


Chorus

[E]                 [D]
Like a lazy flowing river
[A]                    [E]
Rounding castle in the sky
                         [D] 
And the crowd is growing bigger
[A]                                                      
Listening for the happening sound and I have to let them fly


Chorus x3


That is about it, thanks to the previous post, it got me close enough
 to figure the rest out.  I am not positive on the words, 
but they are very close.  Peace Out

Comments