Donovan - Universal Soldier Chords & Tabs

 

Universal Soldier Chords & Tabs

Donovan Chords & Tabs

Version: 1 Type: Tab

Universal Soldier Tab

   
Universal Soldier
Buffy Sainte-Marie
Arrangement Donovan
Tabbed by Jean-David Blanc (15th november 2005)


Capo 4th fret (sounding key B major)
_______________________________________________________________________
Intro

   C               Am      D           D/f#        D       C
 . : . : . : . : . : . : . : . : . : . : . : . : . : . : . : .
|----0---0---0---0---0---0---2---2---2---2---2---2---2---2---0----
|----1---1---1---1---1---1---3---3---3---3---3---3---3---3---1----
|----0---0---0---0---0---0---2---2---2---2---2---2---2---2---0----
|0h2---0---------------2---0-------0-------------------0----------
|----------3---2---0-----------0-----------0-------0-------3------
|--------------------------------------2-------2------------------
                                                      He’s five..

______________________________________________________________________________
[ Tab from: http://www.guitartabs.cc/tabs/d/donovan/universal_soldier_tab.html ]
   C       D       G       Em      C       D       G    /e G 
   : . . . : . . . : . . . : . . . : . . . : . . . : . . . : . . . :
|----0-------2—-222--3----------000--0-------2--222--3-3333--3—-333---|
|----1-------3--333--0-------0--000--1-------3--333--0-0000--0—-000---|
|----0-------2--222--0-------0--000--0-------2--222--0-0000--0—-000---|
|---------------000----------2--222-------------000----022------000---|
|--3---3-2-0-----------------------3---3-2-0--------------------------|
|------------------3---3-2-0-----------------------3-------3----------|



   C       D       G       Em      C               Am      D   Dus2
   : . . . : . . . : . . . : . . . : . . . : . . . : . . . : . . . :
|----0-------2—-222--3----------000--0---0---0---0---0--000--2-0022---|
|----1-------3--333--0-------0--000--1---1---1---1---1--111--3-3333---|
|----0-------2--222--0-------0--000--0---0---0---0---2--222--2-2222---|
|---------------000----------2--2222---0----------------2220---0000---|
|--3---3-2-0-------------------------------3---2---0------------------|
|------------------3---3-2-0------------------------------------------|


      C         D             G        Em
He's five foot-two, and he's six feet-four
     C           D                 G
He fights with missiles and with spears
      C            D               G        Em
He's all of thirty-one, and he's only seventeen
            C                    Am      D
‘s been a soldier for a thousand years